Ads

Shizuka ni Afureru Namida (Aria the Animation) Guitar Tab

Submitted: Dec 31, 2016 by tomorning

5
Average: 5 (2 votes)
Download | Listen
Game: Aria the Animation
Composer(s): Choro Club, Takeshi Senoo, Mina Kubota
Style: Arrangement, Fingerstyle

AutoScroll: Slow | Medium | Fast
2016/12/30
                               Shizuka ni afureru namida
                                   (静かにあふれる涙)
                     ~ from anime "ARIA The ANIMATION" ~

Music by Jyouji Sawada (沢田 穣治)
arranged by to*morning


Normal Tuning

Andante (Q=74)
                                                                           
   4/4
       >                             >                                >                             
                        |---3--|                         |---3--|                         |--3--|   
       E  E  E  E  Q    E  E   E     E  E  E  E  S  S E  E   E  E     S  S E  E  E  E  E  E  E  E   
E||-------------------------------|--------------------------------|----------4--------0-----2--4--|
B||----------------2-------0h--1--|--0--------------------------0--|--0h-1----------2--------------|
G||--4g5-----2--------------------|--------1-------------1h--2-----|-------2-----2-----------------|
D||-------------4-----------------|-----0--------------------------|-------------------------------|
A||-------4-------------3---------|-----------0--2s-3--------------|-------------------------------|
E||----2--------------------------|--1-----------------------------|--2----------------------------|


                    |---3--|                                                         
  E  E  E  E  E  E  E  E   E     E  E  E  E  E  E  E  E     E  E  E  E  E  E  E  E   
--5-----------0---------------|--------4--------5--4-----|--3--------------4--------|
--------3--------------0h--1--|--2-----------2--------5--|--------3-----6-----6--4--|
-----2-----2-----2------------|-----------2--------------|-----0-----0--------------|
--3---------------------------|--------4-----------------|--1-----------------------|
------------------------------|-----4--------------------|--------------------------|
------------------------------|--2-----------------------|--------------------------|


                                                    piu mosso (q =  86)
  E  E  E  E  E  E  Q       E  E  E  E  H             E  E  E  E  E  E     Q    E  E  E  E   
-------------------------|--------------0---------||--0-----0-----------|-------------------|
--6--------4-------------|--0-----------0---------||-----3-----1--------|-------------1--3--|
--------7-----2-----3----|-----------1-----------*||--------2-----1--2--|--1----2--4--------|
-----5-----------0-------|--------0--------------*||--4-----------2-----|--3----------------|
--6----------------------|-----2------------------||--------------------|-------------------|
--------------3----------|--1---------------------||--------------------|-------------------|


  E  E  E  E  Q       Q    E  E  Q       E  E  E  E  E  E     E  E  E  E  E  E   
--0-----------0----|------------------|--0-----0-----------|--------------------|
-----------1-------|-------1----------|-----3-----1--------|-----------0--1--3--|
--------2----------|--2----------2----|--------------1--2--|--1-----2-----------|
-----3-------------|----------3-------|-----2--------------|-----0--------------|
--1----------------|------------------|--------------------|--------------------|
-------------------|------------------|--2-----------------|--1-----------1-----|


                                        4/4                                            
  E  E  E  E  Q       E  E  E  E  Q        Q         E  E  E  E  E  E     E  E  E  E  E  E  Q     
--------4-----0----|--------0-----0----||------------------------------|--0-----------3----------|
--2--------2-------|--------2-----2----||--6------------4--------1--2--|-----------3--------0----|
--------1----------|-----------4-------||------------0-----2--3--------|--------2-----------2----|
-----2-------------|-----2-------------||------------------------0-----|-----2-----------2-------|
--0----------------|--0----------------||--6---------------------------|-------------------------|
-------------------|-------------------||------------------3-----------|--1----------------------|


                                                  3/4
  E  E  E  E  H           E  E  E  E  E  E  Q        E  E  E  E  Q       E  E  E  E  Q     
-----------------------|-----1--0----------------||--------4----------|--------------0----|
--3--------3-----------|-----0-------------------||--2-----2-----4----|--1--------1-------|
--------2-----0--------|-----------2--1--2-------||-----------1-------|--------2----------|
-----3-----------------|--------------0----------||-----2-------------|-----4-------------|
--1--------------------|-------------------------||--0----------------|--0----------------|
-----------------------|--1----------------------||-------------------|-------------------|


                    a tempo (q = 74)
                         >                             >                              
                                         |---3--|                         |---3--|   
  E  E  E  E  Q          E  E  E  E  Q    E  E   E     E  E  E  E  S  S E  E   E  E   
-------------------||-------------------------------|--------------------------------|
--3--------1-------||----------------2-------0h--1--|--0--------------------------0--|
--------2-----0----||--4g5-----2--------------------|--------1-------------1h--2-----|
-----0-------------||-------------4-----------------|-----0--------------------------|
--1----------------||-------4-------------3---------|-----------0--2s-3--------------|
-------------------||----2--------------------------|--1-----------------------------|


  >                                                                                       
                      |--3--|                       |---3--|                              
  S  S E  E  E  E  E  E  E  E     E  E  E  E  E  E  E  E   E     E  E  E  E  E  E  E  E   
----------4--------0-----2--4--|--5-----------0---------------|--------4--------5--4-----|
--0h-1----------2--------------|--------3--------------0h--1--|--2-----------2--------5--|
-------2-----2-----------------|-----2-----2-----2------------|-----------2--------------|
-------------------------------|--3---------------------------|--------4-----------------|
-------------------------------|------------------------------|-----4--------------------|
--2----------------------------|------------------------------|--2-----------------------|


                                                                   *)
  E  E  E  E  E  E  E  E     E  E  E  E  E  E  Q       E  E  E  E  H          
--3--------------4--------|-------------------------|--------------0--------||
--------3-----6-----6--4--|--6--------4-------------|--0-----------0--------||
-----0-----0--------------|--------7-----2-----3----|-----------1-----------||
--1-----------------------|-----5-----------0-------|--------0--------------||
--------------------------|--6----------------------|-----2-----------------||
--------------------------|--------------3----------|--1--------------------|| fine....

Login or Register to remove this ad.