Ads

Natsu Tayori (Aria the Animation) Guitar Tab

Submitted: Jul 04, 2017 by tomorning

5
Average: 5 (3 votes)
Download | Listen
Game: Aria the Animation
Composer(s): Choro Club, Takeshi Senoo, Mina Kubota
Style: Arrangement, Fingerstyle

AutoScroll: Slow | Medium | Fast

July, 4 / 2017

                              Seasonal Letter of the Summer
                                  夏便り ( Natsu tayori )
                          ~ from anime "ARIA The ANIMATION" ~

Music by Shigeharu Sasago ( 笹子 重治 )
arranged by to*morning


4/4

Q=118

 (Standard Tuning, EADGBE)

                                                      1.________________________________________________
      >       >  >       >     >       >  >       >     >       >  >       >     >       >  >       >     
      E  Q    E  E  Q    E     E  Q    E  E  Q    E     E  Q    E  E  Q    E     E  Q    E  E  Q    E     
E||-------------------------|------------------------|------------------------|-------------------------||
B||------3----3-----1----1--|-----0----0-----1----1--|-----3----3-----1----1--|-----0----0-----1----1---||
G||*-----4----4-----2----2--|-----0----0-----2----2--|-----4----4-----2----2--|-----0----0-----2----2--*||
D||*-----2----2-----2----2--|-----2----2-----2----2--|-----2----2-----2----2--|-----2----2-----2----2--*||
A||---3---------------------|--3---------------------|--3---------------------|--3----------------------||
E||--------------3----------|-------------3----------|-------------3----------|-------------3-----------||


 2.______________________________________________
  >       >  >       >     >       >  >                                                                
  E  Q    E  E  Q    E     E  Q    E  E  E  Q        E  E  E  E  E  Q    E     E  E  E  E  E  E  E  E   
------------------------|------------------------||--0--------------5----3--|--------0-----------------|
-----3----3-----1----1--|-----0----0-----1-------||----------------------0--|-----1-----------1--------|
-----4----4-----2----2--|-----0----0-----2--0----||-----0--5--2-----5----0--|-----0-----2-----2--0-----|
-----2----2-----2----2--|-----2----2-----2-------||-----2-----2-------------|-----2-----2-----2-----0--|
--3---------------------|--3---------------------||--3----------------------|--3-----------------------|
-------------3----------|-------------3----------||--------------3----------|--------------3-----------|


                                                       >           >              >                       
  E  E  E  E  E  Q    E     E  E  E  E  E  E  E  E     E  E  E  E  E  E  E  E     E  E  E  E  Q    E  E   
--0--------------5----3--|--------0--3--------0-----|--------------0-----0-----|--------0--3--7----5--7--|
----------------------0--|-----1-----------------3--|--1-----0--1-----------3--|--0--1--0----------------|
-----0--5--2-----5----0--|-----0-----------3--------|--------2--------5--------|--------0-----6----------|
-----2-----2-------------|-----2-----2-----2--------|-----3-----------6--------|--------------5----------|
--3----------------------|--3-----------------------|--------------------------|--------------0----------|
--------------3----------|--------------3-----------|--1-----------4-----------|--0----------------------|


     >      >     >     >                                                                                  
  E  E   E  E  E  E  E  E     E  E  E  E  E  E  Q       E  E  E  E  E  Q    E     E  E  E  E  E  E  E  E   
--8------------------------|-------------------------|--0--------------5----3--|--------0-----------------|
--5--6--10-----8-----6-----|--1--1-------------------|----------------------0--|-----1-----------1--------|
--5------7--7--5--5-----2--|--1--1-----4--------0----|-----0--5--2-----5----0--|-----0-----2-----2--0-----|
---------9-----7-----5-----|--0--0-----3-------------|-----2-----2-------------|-----2-----2-----2-----0--|
--8------7-----5-----------|-------------------------|--3----------------------|--3-----------------------|
---------------------------|-----------3-------------|--------------3----------|--------------3-----------|


  E  E  E  E  E  Q    E     E  E  E  E  E  E  E  E     E  E  E  E  E  E  E  E     E  E  E  E  Q    E  E   
--0--------------5----3--|--------0--3--------0-----|--------------0-----0-----|--------0--3--7----5--7--|
----------------------0--|-----1-----------------3--|--1-----0--1-----------3--|--0--1--0----------------|
-----0--5--2-----5----0--|-----0-----------3--------|--------2--------5--------|--------0-----6----------|
-----2-----2-------------|-----2-----2-----2--------|-----3-----------6--------|--------------5----------|
--3----------------------|--3-----------------------|--------------------------|--------------0----------|
--------------3----------|--------------3-----------|--1-----------4-----------|--0----------------------|


     >      >                                                                                           >   
  E  E   E  E  E  E  E  E     E  E  E  E  E  E  Q        E  E  E  E  E  E  E  E     E  E  E  E  E  E  E  E   
--8---------------------0--|-------------------------||--5--------5--3-----5--3--|--0-----------------0-----|
--5--6--10-----8-----------|--3--3-----1--------1----||--------5-----------3-----|-----1--------------1-----|
--5------7--7--5-----------|--0--0-----------3-------||-----5-----------4--------|-----------2-----------0--|
---------9-----7--6--7-----|--2--2--------2----------||--3-----------5-----------|-----2-----------2--------|
--8------7-----5-----------|--3--3-----3-------------||--------------------------|--3-----------0-----------|
---------------------------|-------------------------||--------------------------|--------------------------|


                                                 >              >                                        
  E  E  E  E  E  E  Q       E  E  E  E  E  E  E  E     E  E  E  E  E  E  Q       E  E  E  E  Q    E  E   
--------1-----------3----|--0--1--2--3--------------|--5-----------7----------|--8--7--5-------------0--|
--3-----------4----------|--0-----------------1-----|--------5-----------9----|-----------5-------------|
-----2-----2-----4-------|--0--------3-----------0--|-----5-----0-------------|--------5-----5----2-----|
--0--------------3-------|-----------------2--------|--3--------------9-------|--------5-----2----------|
-------------------------|--3-----------------------|--------------7----------|--0-----------0----------|
--------------3----------|--------------------------|-------------------------|-------------------------|


  Q    E  E  Q    Q       E  E  E  E  Q    Q        E  E  E  E  E  Q    E     E  E  E  E  E  E  E  E   
----------0--5----0----|--------------3---------||--0--------------5----3--|--------0-----------------|
--3---------------3----|--3--------0------------||----------------------0--|-----1-----------1--------|
-------2---------------|--------2----------0----||-----0--5--2-----5----0--|-----0-----2-----2--0-----|
--0--------------------|-----3------------------||-----2-----2-------------|-----2-----2-----2-----0--|
-----------------------|------------------------||--3----------------------|--3-----------------------|
-------------2---------|--3---------------------||--------------3----------|--------------3-----------|


  E  E  E  E  E  Q    E     E  E  E  E  E  E  E  E     E  E  E  E  E  E  E  E     E  E  E  E  Q    E  E   
--0--------------5----3--|--------0--3--------0-----|--------------0-----0-----|--------0--3--7----5--7--|
----------------------0--|-----1-----------------3--|--1-----0--1-----------3--|--0--1--0----------------|
-----0--5--2-----5----0--|-----0-----------3--------|--------2--------5--------|--------0-----6----------|
-----2-----2-------------|-----2-----2-----2--------|-----3-----------6--------|--------------5----------|
--3----------------------|--3-----------------------|--------------------------|--------------0----------|
--------------3----------|--------------3-----------|--1-----------4-----------|--0----------------------|


     >      >                                                                                     (*     
  E  E   E  E  E  E  E  E     E  E  E  E  H           E  E  E  E  E  E  E  E     S S S S S S S S S E.  Q      
--8---------------------0--|-----------------------|--3--3-----1-----------0--|----------0---------0--------||
--5--6--10-----8-----------|--3--3-----1-----------|--1--1-----1--------------|--3-----3---------3----------||
--5------7--7--5-----------|--0--0-----2-----------|--1--1-----1--------1-----|------0---------0------------||
---------9-----7--6--7-----|--2--2-----2-----------|--0--0-----------5--------|----2---------2--------------||
--8------7-----5-----------|--3--3-----------------|--------------------------|--3---------3----------------||
---------------------------|-----------3-----------|--------------3-----------|-----------------------------||   fine....

Login or Register to remove this ad.