Ads

Mangetsu no Dolche (Lute Version) (Aria the Animation) Guitar Tab

Submitted: Jun 19, 2014 by tomorning (Last updated: Jul 17, 2014)

5
Average: 5 (2 votes)
Download | Listen
Game: Aria the Animation
Composer(s): Choro Club, Takeshi Senoo, Mina Kubota
Style: Arrangement, Artificial harmonics, Fingerstyle, Natural harmonics

AutoScroll: Slow | Medium | Fast
                                 Mangetsu no Dolche
                                  (満月のドルチェ)
                          ~ from anime "ARIA The ANIMATION" ~

Music by Takeshi Senoo / 妹尾武
arranged by to*morning


 (Lute or Vihuela, 3 = Gb EADGbBE)
** $ = segno
** & = coda


Andante dolce e tranquilo (Q = 95)

E |---------0---|--------|---------0---|------||
A |-----2-------|-3------|-----2-------|-3----||
Gb|-----0---0---|-2------|-----0---0---|-2----||
D |---2---2---2-|--------|---2---2---2-|------||
A |-0-----------|--------|-0-----------|------||
E |-------------|--------|-------------|------||


  $
|-----0---4----|-0-------|-0-----------|--------0-|
|--------------|-3----2--|-----0-------|-3----2---|
|-----0---0----|-2-------|-----0---0---|-2--------|
|---2---2---2--|---------|---2---2---2-|----------|
|-0------------|---------|-0-----------|----------|
|--------------|---------|-------------|----------|


|-7-------5---|-4--2-4----|---------0---|---------|
|-------------|-3------0--|-----2-------|-3-------|
|-----0---0---|-2---------|-----0---0---|-2-------|
|---2---2---2-|-----------|---2---2---2-|----2----|
|-0-----------|-----------|-0-----------|---------|
|-------------|-----------|-------------|---------|


|-------------|------0--|-------------|-----------|
|---------0---|-2-------|-3---2---0---|-------0---|
|-----3---0---|-2-------|-----0---0---|-2--3------|
|---2---2---2-|---------|---2---2---2-|-----------|
|-0-----------|---------|-0-----------|-----------|
|-------------|---------|-------------|-----------|


|-----0-------|--------|---------0---|------||
|-2-3---------|-3------|-----2-------|-3----||
|-----0---0---|-2------|-----0---0---|-2----||
|---2---2---2-|--------|---2---2---2-|------||
|-0-----------|--------|-0-----------|------||
|-------------|--------|-------------|------||


|-----0---4---|-0-------|-0-----------|--------0--|
|-------------|-3----2--|-----0-------|-3----2----|
|-----0---0---|-2-------|-----0---0---|-2---------|
|---2---2---2-|---------|---2---2---2-|-----------|
|-0-----------|---------|-0-----------|-----------|
|-------------|---------|-------------|-----------|


|-7-------5---|-4--2-4----|---------0---|-4--2--0---||
|-------------|-3------0--|-----2-------|-3---------||
|-----0---0---|-2---------|-----0---0---|-2---------||
|---2---2---2-|-----------|---2---2---2-|-----------||
|-0-----------|-----------|-0-----------|-----------||
|-------------|-----------|-------------|-----------||


                                            To Coda
|------------|---------4--|-5-----4-2--|-0-----------||
|-2-----0-2--|-5---7------|-----3---3--|-----0---2---||
|-----3---3--|-------5----|---3--------|-------3-----||
|---4--------|---6--------|------------|---2---------||
|-5----------|-4----------|-2----------|-0-----------||
|------------|------------|------------|-------------||


                                                 2/4
|-7--------|-9------4--|-5-------0--|----------||--9-10-9-10-||
|----8--7--|-7--10--3--|-------2----|----------||-11---------||
|-9--------|-----------|-----5------|----------||-13---------||
|-7--------|-----------|---2--------|----------||------------||
|----------|-----------|-0----------|-<5>------||------------||
|-7--------|-0------4--|------------|----------||------------||


 4/4
|-7------9-7-9-|-5------7-4---|-0---5----7-----|-2---0------------|
|-7----6-------|-5----4-----7-|-3-3----7---9-7-|-2---0h2-2-3-2S3--|
|-9----8-------|-7----6-------|-5------8-------|---------4--------|
|--------------|--------------|----------------|---2--------------|
|--------------|--------------|--------9-------|-0----------------|
|--------------|--------------|----------------|------------------|


|-----------------|-------0----------|-----------------|---------0-------|
|-0-----4---------|-----2-----0------|-------0---0-----|-----0h2-2-3-2-3-|
|-----5-----7-5-7-|-3------------2---|-----3---------2-|-3-------1-------|
|---4-----3-------|---2------------4-|-2p0---------4---|---2-----2-------|
|-0-------5-------|-4-------3--------|-2---------------|-0---------------|
|-----------------|------------------|---------0-------|-----------------|


|---------------|---------------|----------------|----------------|
|-0-------2-0-2-|---------0-----|----------0-----|--------2-3-2S3-|
|---------------|-2---------2---|-----3------2---|--------4-------|
|-1-----3-------|----2--------4-|-2p0----------4-|-4---2----------|
|----0--5-------|-4-----3-------|-2--------------|-0--------------|
|---------------|---------------|--------0-------|---0------------|


|-----------------|-------0---------|-----------------|----------0-----|
|-0-----4---------|-----2-----0-----|-------0---0-----|-----3------2-0-|
|-----5-----7-5-7-|-3-----------2---|-----3-------2---|-----3----------|
|---4-----3-------|---2---------2-4-|-2p0-----------4-|-2p0----4-------|
|-0-------5-------|-4-------3-------|-2-------5-------|-0--------------|
|-----------------|-----------------|-----------------|------------2---|


|--------0------|---------4---5--|---------------0-|-<12>----------|
|-2p0-2------3--|-2-----2--------|---------0---2---|---------------|
|------------5--|-----3-----7----|-3-----2---3-----|-(10)--8--7----|
|-4--------4----|---2-------7----|-----4-----------|---------------|
|---------------|---------6------|---2-------------|---------------|
|-4------3------|-2--------------|-0---------------|---------------|


|------------|-----------|------||
|------------|-2---------|------||
|------------|-3----3----|------||
|-2--0-------|-0----4----|-4----||
|-------4----|------2----|-5----||
|-0----------|-----------|-0----||


                                  D.S. al Coda
 3/4
|---------0---|---------|---------0---|---------||
|-----2-------|-3-------|-----2-------|-3-------||
|-3---0---0---|-2-------|-----0---0---|-2-------||
|---2---2---2-|------2--|---2---2---2-|------2--||
|-0-----------|---------|-0-----------|---------||
|-------------|---------|-------------|---------||


  &
|-7--------|-9------4--||
|----8--7--|-7--10--3--||
|-9--------|-----------||
|-7--------|-----------||
|----------|-----------||
|-7--------|-0------4--||


|-5-------0---|---------|---------0---|----5--2---|
|-------------|-3-------|-----2-------|-3---------|
|-----0---0---|-2-------|-----0---0---|-2---------|
|---2---2---2-|------2--|---2---2---2-|-----------|
|-0-----------|---------|-0-----------|-----------|
|-------------|---------|-------------|-----------|


|-5-------0---|---------|---------0--|----5--2---|
|-------------|-3-------|-----2------|-----------|
|-----0---0---|-2-------|-----0---0--|-3---------|
|---2---2---2-|------2--|---2---2----|-0---------|
|-0-----------|---------|-0----------|-----------|
|-------------|---------|------------|-0---------|


|-5-------0-5-|------[5]----*|
|-------2-----|-------------*|
|-----5-------|-------------*|
|---2---------|-------------*|
|-0-----------|-------------*|
|-------------|-------------*|
Login or Register to remove this ad.