Ads

Mangetsu no Dolce (Aria the Animation) Guitar Tab

Submitted: Mar 26, 2014 by tomorning

5
Average: 5 (4 votes)
Download | Listen
Game: Aria the Animation
Composer(s): Choro Club, Takeshi Senoo, Mina Kubota
Style: Arrangement, Artificial harmonics, Fingerstyle, Natural harmonics

AutoScroll: Slow | Medium | Fast
                                 Mangetsu no Dolche
                                    (満月のドルチェ)
                          ~ from anime "ARIA The ANIMATION" ~

Music by Takeshi Senoo / 妹尾武
arranged by to*morning


 (Standard Tuning, EADGBE)
** $ = segno
** & = coda


Q = 95
Andante dolce e tranquilo

 3/4
E|---------0--|--------|---------0--|------||
B|-----2------|-3------|-----2------|-3----||
G|-------2----|-1------|-------2----|-1----||
D|---2--------|--------|---2--------|------||
A|-0----------|--------|-0----------|------||
E|------------|--------|------------|------||


  $

|-----0---4---|-0-------|-0-------0--|--------0-|
|-----2-------|-3----2--|-----0------|------2---|
|-------2-----|-1-------|-----6------|-7--------|
|---2---------|---------|-------7----|-6--------|
|-0-----------|---------|---7--------|----------|
|-------------|---------|-5----------|----------|


|-7-------5--|-4----4----|---------0--|---------|
|-------5----|----7---0--|-----2------|-3-------|
|-----6------|-7---------|-------2----|-1-------|
|---6--------|-6---------|---2--------|----2----|
|-0----------|-----------|-0----------|---------|
|------------|-----------|------------|---------|


|------------|------0--|------------|-----------|
|---------0--|-2-------|-3---2---0--|-------0---|
|-----2------|-1-------|-------2----|-1--2------|
|---2---2----|---------|---2--------|-----------|
|-0----------|---------|-0----------|-----------|
|------------|---------|------------|-----------|


|-----0------|--------|---------0--|------||
|-2-3-----2--|-3------|-----2------|-3----||
|-------2----|-1------|-------2----|-1----||
|---2--------|--------|---2--------|------||
|-0----------|--------|-0----------|------||
|------------|--------|------------|------||


|-----0---4--|-0-------|-0-------0--|--------0--|
|-----2------|-3----2--|-----0------|------2----|
|-------2----|-1-------|-----6------|-7---------|
|---2--------|---------|-------7----|-6---------|
|-0----------|---------|---7--------|-----------|
|------------|---------|-5----------|-----------|


|-7-------5--|-4----4----|---------0--|-4--2--0---||
|-------5----|----7------|---------2--|-3---------||
|-----6------|-7------6--|-----2------|-1---------||
|---6--------|-6---------|---2---2----|-----------||
|-0----------|-----------|-0----------|-----------||
|------------|-----------|------------|-----------||


                                               Da Coda
|------------|---------4--|-5-----4-2--|-0-----------||
|-2-----0-2--|-5---7------|-----3---3--|-----0---2---||
|-----2---2--|-------4----|---2--------|-------2-----||
|---4--------|---6--------|------------|---2---------||
|-5----------|-4----------|-2----------|-0-----------||
|------------|------------|------------|-------------||

            rit.........accel
                                                 2/4
|-7--------|-9------4--|-5-------0--|----------||--9-10-9-10-||
|----8--7--|-7--10--3--|-------2----|----------||-11---------||
|-8--------|-9---------|-----4------|----------||-12---------||
|-7--------|-----------|---2--------|----------||------------||
|----------|-----------|-0----------|-<5>------||------------||
|-7--------|-0------4--|------------|----------||------------||


 4/4
|-7------9-7-9-|-5------7-4---|-0---5----7-----|-2---0------------|
|-7----6-------|-5----4-----7-|-3-3----7---9-7-|-2---0h2-2-3-2S3--|
|-8----7-------|-6----5-------|-4------7-------|---------3--------|
|--------------|--------------|----------------|---2--------------|
|--------------|--------------|--------9-------|-0----------------|
|--------------|--------------|----------------|------------------|


                                                          rall..  A tempo
|-----------------|-------0---------|-----------------|---------0-------|
|-0-----4-----0---|-----2-----0-----|-------0---0-----|-----0h2-2-3-2-3-|
|-----4-----6---6-|-2-----------1---|-----2---------1-|-2-------0-------|
|---4-----3-------|---2-----------4-|-2p0---------4---|---2-----2-------|
|-0-------5-------|-4-------3-------|-2---------------|-0---------------|
|-----------------|-----------------|---------0-------|-----------------|


|---------------|---------------|-----------------|----------------|
|-0-------2-0-2-|---------0-----|-------0---0-----|--------2-3-2S3-|
|---------------|-2---------1---|-----2-------1---|--------3-------|
|-1-----3-------|----2--------4-|-2p0-----------4-|-4---2----------|
|----0--5-------|-4-----3-------|-2---------------|-0--------------|
|---------------|---------------|---------0-------|---0------------|


                            rall.accel........rit......................
|-----------------|-------0---------|-----------------|----------0-----|
|-0-----4-----0---|-----2-----0-----|-------0---0-----|-----3------2-0-|
|-----4-----6---6-|-2-----------1---|-----2-------1---|-----2----------|
|---4-----3-------|---2---------2-4-|-2p0-----------4-|-2p0----4-------|
|-0-------5-------|-4-------3-------|-2-------5-------|-0--------------|
|-----------------|-----------------|-----------------|------------2---|

 meno moso
|--------0------|---------4---5--|-----------------|-<12>----------|
|-2p0-2------3--|-2-----2--------|---------0-----9-|---------------|
|------------4--|-----2-----6----|-2-----1-----6---|--(9)--7--6----|
|-4--------4----|---2-------7----|-----4-----7-----|---------------|
|---------------|---------6------|---2-------------|---------------|
|-4------3------|-2--------------|-0---------------|---------------|

rit..............................
|------------|-----------|------||
|------------|-2---------|------||
|------------|-2----2----|------||
|-2--0-------|------4----|-4----||
|-------4----|-5----2----|-5----||
|-0----------|-----------|-0----||


 accel....a Tempo                       D.S. al Coda
 3/4
|---------0--|---------|---------0-------|---------||
|-----2------|-3-------|-----2------3----|-3-------||
|-2-----2----|-1-------|-------2----1----|-1-------||
|---2--------|------2--|---2-------------|------2--||
|-0----------|---------|-0---------------|---------||
|------------|---------|-----------------|---------||



  &
|-7--------|-9------4--||
|----8--7--|-7--10--3--||
|-8--------|-9---------||
|-7--------|-----------||
|----------|-----------||
|-7--------|-0------4--||


|-5-------0--|---------|---------0--|----5------|
|-----2------|-3-------|-----2------|-------7---|
|-------2----|-1-------|-------2----|-7---------|
|---2--------|------2--|---2--------|-6---------|
|-0----------|---------|-0----------|-----------|
|------------|---------|------------|-----------|


|-5-------0--|---------|---------0--|----5--2---|
|-----2------|-3-------|-----2------|-----------|
|-------2----|-1-------|-------2----|-7---------|
|---2--------|------2--|---2--------|-6---------|
|-0----------|---------|-0----------|-----------|
|------------|---------|------------|-----------|


|-5-------0-5-|-(5)--[5]----*|
|-------2-----|-------------*|
|-----4-------|-------------*|
|---2---------|-------------*|
|-0-----------|-------------*|
|-------------|-------------*|





-*-*-*-*-*-*-*-*-*-*-*-*-
Original Pf line

|---------0---|--------|
|-----2-------|--------|
|-------------|-7------|
|---2-4-2-4-2-|-6------|
|-0-----------|--------|
|-------------|--------|

Login or Register to remove this ad.

3 comments on Mangetsu no Dolce

Great tab as usual. I could

Great tab as usual. I could listen to Aria's soundtrack all day. I'll have to try and learn this one.

Love your Aria tabs. Don't

Love your Aria tabs.

Don't have to wait for Mackytube in Youtube anymore

Once again, I'm sad I missed

Once again, I'm sad I missed this one, It's so wonderful!