Ads

Koi to wa Donna Mono? (Aria the Animation) Guitar Tab

Submitted: May 19, 2014 by tomorning

5
Average: 5 (10 votes)
Download | Listen
Game: Aria the Animation
Composer(s): Choro Club, Takeshi Senoo, Mina Kubota
Style: Arrangement, Fingerstyle

This song is also called What Is Love Like?

AutoScroll: Slow | Medium | Fast
                                Koi towa donnamono?
                                  (恋とはどんなもの?)
                          ~ from anime "ARIA The ANIMATION" ~

Music by Oh Akioka (秋岡欧) / Choro Club
arranged by to*morning


 (Standard Tuning, EADGBE)

 Moderato ( Q=108 )

 2/4     3/4

E|------||-0-----7--|-5---------|--------5--|-3----------|
B|--3h4-||----5-----|----5--7-5-|-3---------|-----0--0h1-|
G|------||----5-----|----5------|-----4-----|-----0------|
D|------||----5-----|----7------|---4-------|---2--------|
A|------||-0--------|-5---------|-----------|------------|
E|------||----------|-----------|-3---------|-0----------|


|--------3--|-------5-----|-0-------0---|-------------|
|-1---------|-7-------7---|-------2---4-|-3----2-3S4--|
|-----0-----|-----5-----7-|---0-3-------|-2-----------|
|---2-------|---7---------|-----2-------|-2-----------|
|-0---------|-5-----------|-0-----------|----0--------|
|-----------|-------------|-------------|------2-3S4--|


|-------7--|-------10------|-2------4S5-4-|-3---2--0--|
|-5--------|-10----10--12--|-----0--------|-----2-----|
|----5-----|-------11------|--------------|-----3-----|
|----5-----|----10---------|---4----------|---2-------|
|----------|---------------|--------------|-----------|
|-5--------|-10------------|-3------------|-2---------|


|-2---------|----------|-------------|--------------||
|-4---------|----4-----|-2p0---0-1h2-|-3-1-0-1-3S4--||
|-3-----1-2-|-3-----3--|-----3-------|-1------------||
|-4---4-----|-------4--|-------------|--------------||
|-2---------|-4--------|-2-----------|--------------||
|-----------|----------|-------------|-0------------||


|-0-----7--|-5--------0-|---------5--|-3-----------|
|----5-----|-----7--7---|-3-------3--|-----2--0h1--|
|----5-----|-----5------|-----2------|-------------|
|----5-----|---7--------|---4---4----|---2---------|
|-0--------|-5----------|-2----------|-1-----------|
|----------|------------|------------|-------------|


|--------3--|-2---------0-|-1-----------|----0-------|
|-1---------|---------3---|-------1-0---|------------|
|-----0-----|-----5-------|-----2-----2-|-1--2--3h4--|
|---2-------|---4---4-----|---3---------|------------|
|-0---------|-------------|-2-----------|------------|
|-----------|-4-----------|-------------|-0--2--4----|


|-------------|------------|------------|------------|
|-3---1-------|-----3----2-|-1---0------|--------1---|
|---0---------|--------0---|---0---0----|-----1------|
|---------2---|-1----------|---------0--|-2----------|
|-0-----0-1-2-|-3----------|-2----------|---1--------|
|-------------|---3--------|------------|------------|


|---------0--|-------------|------------|-0--------||
|-0-----2----|-0-----3-----|------------|-3----3h4-||
|-----4------|-----5-----0-|-0-------2--|-2--------||
|---5--------|---4---------|-----2------|-3--------||
|-0----------|-------------|---3---3----|-1--------||
|------------|-4-----------|-1----------|----------||


|-0------7--|-5----------|---------5--|-3-----------|
|-----0-----|-----0--7-5-|-3-------3--|-----0--0h1--|
|-----5-----|-----5------|-----4------|-----0-------|
|---5-------|---4--------|---4---4----|---2---------|
|-0---------|-5----------|------------|-------------|
|-----------|------------|-3----------|-0-----------|


|--------3--|-------5-----|-0-------0---|-------------|
|-1---------|-7-------7---|-------2---4-|-3----2-3S4--|
|-----0-----|-----5-----7-|---0-3-------|-2-----------|
|---2-------|---7---------|-----2-------|-2-----------|
|-0---------|-5-----------|-0-----------|----0--------|
|-----------|-------------|-------------|------2-3S4--|


|-------7--|-------10------|-2------4S5-4-|-3---2--0--|
|-5--------|-10----10--12--|-----0--------|-----2-----|
|----5-----|-------11------|--------------|-----3-----|
|----5-----|----10---------|---4----------|---2-------|
|----------|---------------|--------------|-----------|
|-5--------|-10------------|-3------------|-2---------|


|-2---------|----------|-------------|--------------||
|-4---------|----4-----|-2p0---0-1h2-|-3-1-0-1-3S4--||
|-3-----1-2-|-3-----3--|-----3-------|-1------------||
|-4---4-----|-------4--|-------------|--------------||
|-2---------|-4--------|-2-----------|--------------||
|-----------|----------|-------------|-0------------||


|-0-----7--|-5--------0-|---------5--|-3-----------|
|----5-----|-----7--7---|-3-------3--|-----2--0h1--|
|----5-----|-----5------|-----2------|-------------|
|----5-----|---7--------|---4---4----|---2---------|
|-0--------|-5----------|-2----------|-1-----------|
|----------|------------|------------|-------------|


|--------3--|-2---------0-|-1-----------|----0-------|
|-1---------|---------3---|-------1-0---|------------|
|-----0-----|-----5-------|-----2-----2-|-1--2--3h4--|
|---2-------|---4---4-----|---3---------|------------|
|-0---------|-------------|-2-----------|------------|
|-----------|-4-----------|-------------|-0--2--4----|


|-------------|-----------|------------|------------|
|-3---1-------|----3----2-|-1---0------|--------1---|
|---0---------|-------0---|---0---0----|-----1------|
|---------2---|-1---------|---------0--|-2----------|
|-0-----0-1-2-|-3---------|-2----------|---1--------|
|-------------|-----------|------------|------------|


|---------0--|-------------|-------------|----------||
|-0-----2----|-0-----3-----|---------0---|-1---0----||
|-----4------|-----5-----0-|-0---0-------|-0---0----||
|---5--------|---4---------|---0---0---0-|---3------||
|-0----------|-------------|-------------|----------||
|------------|-4-----------|-3-----------|----------||


|------------7----|------------7----|----------7----|----------7-----|
|----10--------10-|----10--------10-|---10-------10-|---10-------10--|
|-------7---------|-------7---------|------7--------|------7---------|
|-10------10------|-10------10------|-9------9------|-9------9-------|
|-----------------|-----------------|---------------|----------------|
|-----------------|-----------------|---------------|----------------|


|---5-----3---|---5-----3---|---5-----3---|-2------------|
|-----3-----3-|-----3-----3-|-----3-----3-|-3------------|
|-3-----3-----|-3-----3-----|-2-----2-----|-2------------|
|-------------|-------------|-------------|--------------|
|-------------|-------------|-------------|--------------|
|-------------|-------------|-------------|--------------|


|-------------|-------------|-------------|--------------|
|---------0---|---------0---|---------0---|---------0----|
|---2---------|---2---------|---2---------|---2----------|
|-----5-----5-|-----5-----5-|-----5-----5-|-----5-----5--|
|-4-----4-----|-4-----4-----|-3-----3-----|-3-----3------|
|-------------|-------------|-------------|--------------|


|-------------|-------------|-------------|-----------||
|---------0---|---------0---|-------------|------3h4--||
|---2---------|---2---------|---2-----2---|-3---------||
|-----0-----0-|-----0-----0-|-----0-----0-|-0---------||
|-2-----2-----|-2-----2-----|-1-----1-----|-1---------||
|-------------|-------------|-------------|-----------||


|-0------7--|-5----------|---------5--|-3-----------|
|-----0-----|-----0--7-5-|-3-------3--|-----0--0h1--|
|-----5-----|-----5------|-----4------|-----0-------|
|---5-------|---4--------|---5---5----|---2---------|
|-0---------|-5----------|------------|-------------|
|-----------|------------|-3----------|-0-----------|


|---------3--|-------5-----|-0-------0---|-------------|
|-1-------1--|-7-------7---|-------2---4-|-3----2-3S4--|
|-----0------|-----5-----7-|---0-3-------|-2-----------|
|---2---2----|---7---------|-----2-------|-2-----------|
|-0----------|-5-----------|-0-----------|----0--------|
|------------|-------------|-------------|------2-3S4--|


|-------7--|-------10------|-2------4S5-4-|-3---2--0--|
|-5--------|-10----10--12--|-----0--------|-----2-----|
|----5-----|-------11------|--------------|-----3-----|
|----5-----|----10---------|---4----------|---2-------|
|----------|---------------|--------------|-----------|
|-5--------|-10------------|-3------------|-2---------|


|-2---------|----------|-------------|--------------|
|-4---------|----4-----|-2p0---0-1h2-|-3-1-0h1-3h4--|
|-3-----1-2-|-3-----3--|-----3-------|-----0h1------|
|-4---4-----|-------4--|-------------|-2-4----------|
|-2---------|-4--------|-2-----------|--------------|
|-----------|----------|-------------|-0------------|


|-0-----7--|-5------2---0---|---------5--|-3----------|
|----5-----|-----7----------|-3-------3--|-----2--0h1-|
|----5-----|---5------------|-----2------|------------|
|----5-----|-0--------------|---4---4----|---2--------|
|-0--------|--------0--4--3-|-2----------|-1----------|
|----------|----------------|------------|------------|
                    |--3--|


|---------3--|-2---------0-|-1-----------|----0-------|
|-1-------1--|---------3---|-------1-0---|------------|
|-----0------|-----5-------|-----2-----2-|-1--2--3h4--|
|---2---2----|---4---4-----|---3---------|------------|
|-0----------|-------------|-2-----------|------------|
|------------|-4-----------|-------------|-0--2--4----|


|-------------|-----------|------------|------------|
|-3---1-------|----3----2-|-1---0------|--------1---|
|---0---------|-------0---|---0---0----|-----1------|
|---------2---|-1---------|---------0--|-2----------|
|-0-----0-1-2-|-3---------|-2----------|---1--------|
|-------------|-----------|------------|------------|


|---------0--|---------0---|---------0--|---------1----|
|-0-----2----|-0-----------|-----0------|---3-------3--|
|-----4------|-----5-----0-|-0----------|-----2--------|
|---5--------|---4---4-----|---2---2----|-------3------|
|-0----------|-------------|------------|-1------------|
|------------|-4-----------|-1----------|--------------|


|---------0---|---------3---|-2------|-------*|
|-----3-------|-----3-------|-2------|-------*|
|-------5-----|-------5---5-|-4------|-------*|
|---5-------5-|---5---------|-0------|-------*|
|-0-----------|-------------|--------|-------*|
|-------------|-4-----------|-3------|-------*|fine.
Login or Register to remove this ad.

6 comments on Koi to wa Donna Mono?

That was really really fun to

5

That was really really fun to play, favorited

I'm going to perform this

5

I'm going to perform this song tomorrow night at a coffee shop near my house =)

How was it ? I'm quite fond

How was it ? I'm quite fond of this one, it calms me down.

Holy crap I missed this

Holy crap I missed this comment, I appologize! It went VERY well, I played it a few different times on different nights =)

Respect.

5

Respect.

Perf

5

So beautiful. I just came across your arrangements and am seriously impressed and inspired by you! Thank you so much for your work - time to practice :)