Ads

Aqua Alta Hiyori -guitar solo- (Aria the Animation) Guitar Tab

Submitted: Nov 24, 2013 by tomorning

5
Average: 5 (11 votes)
Download | Listen
Game: Aria the Animation
Composer(s): Choro Club, Takeshi Senoo, Mina Kubota
Style: Arrangement, Fingerstyle

This song is also called Aqua Alta Biyori

AutoScroll: Slow | Medium | Fast
                                   Aqua Alta Biyori
                                  (アクアアルタ日和)
                                 --- Guitar solo ---
                          ~ from anime "ARIA The ANIMATION" ~

Music by Shigeharu Sasakgo(笹子重治),Choro Club
allanged by to*morning

 3/4

Q=146

---Guitar (Standard Tuning, EADGBE)


|---------|---------|-------|-------|
|----4----|----3----|----4--|----3--|
|----4----|----3----|----4--|----3--|
|----4----|----4----|----4--|----4--|
|-2-------|---------|-2-----|-------|
|---------|-2-------|-------|-2-----|


                               rit......
|---------|---------|---------|----2----|
|----4----|----3----|----4----|-3-------|
|----4----|----3----|----4----|-3-------|
|----4----|----4----|----4----|-4-------|
|-2-------|---------|-2-------|---------|
|---------|-2-------|---------|-2-------|


    a Tempo
|-||-------4---|-------6--|-2--------|-------2--|
|-||o-4--------|-3--------|----4-----|----3-----|
|-||-----4-----|----3-----|----4--3--|-1--3-----|
|-||-----4-----|----4-----|----4-----|----4-----|
|-||o-2--------|----------|-2--------|----------|
|-||-----------|-2--------|----------|-2--------|



|------4---|-------6--|-2--------|-------7--||
|-4--------|-3--------|----4-----|-0--------||
|----4-----|----3-----|-------3--|----2-----||
|----4-----|----4-----|----4-----|----1-----||
|-2--------|----------|-2--------|----------||
|----------|-2--------|----------|-1--------||



|-------7--|-------5--|-2--------|-----------|
|-7--------|-5--------|----2-----|-0--2--3---|
|----0-----|----5-----|----2--2--|----4------|
|----4-----|----5-----|-0--------|----4------|
|----------|-0--------|----------|-----------|
|-0--------|----------|----------|-3---------|


                                   rit......
|-0--------|-------0--|----------|-2-----2--||
|----------|-5--4-----|-2--------|-3--------||
|-------4--|----4-----|-------4--|-3--------||
|----6-----|-------6--|----2-----|-4--------||
|-4--------|----------|----------|----------||
|----------|----------|-2--------|----2-----||


a Tempo
|-------4--|-------6--|-2--------|-------2--|
|-4--------|-3--------|----4-----|----3-----|
|----4-----|----3-----|----4--3--|-1--3-----|
|----4-----|----4-----|----4-----|----------|
|-2--------|----------|-2--------|----------|
|----------|-2--------|----------|-2--------|


|------4---|-------6--|-2--------|-------7--||
|-4--------|-3--------|----4-----|-0--------||
|----4-----|----3-----|-------3--|----2-----||
|----4-----|----4-----|----4-----|----1-----||
|-2--------|----------|-2--------|----------||
|----------|-2--------|----------|-1--------||


\-1.-------

|-------7--|-------5---|-2--------|----------|
|-7--------|-5-------5-|----2-----|-0--2--3--|
|----0-----|----5------|----2--2--|----4-----|
|----4-----|----5------|-0--------|----5-----|
|----------|-0---------|----------|----------|
|-0--------|-----------|----------|-3--------|


                       rit.............
|-0--------|-0--------|----------|---------|
|-0-----0--|----4--3--|-4--------|-4----7--|
|-1--1-----|----3-----|-------3--|---------|
|----------|----2-----|----4-----|---------|
|-4--------|----------|-2--------|---------|
|----------|-2--------|----------|---------|


a Tempo
|-7-------|-0--2--3--|-5--------|-------5--|
|----0----|----2-----|-------2--|-3--------|
|----0----|----0-----|----2-----|----0-----|
|----4----|----------|----4-----|----4-----|
|---------|-0--------|-5--------|----------|
|-0-------|----------|----------|-3--------|



|-3-------|----------|-2-------|-----------|
|----0----|-2--3--5--|----3----|-0---------|
|----0----|----3-----|----2----|----2------|
|---------|----------|----4----|----1------|
|-4-------|----------|-2-------|-----------|
|---------|-2--------|---------|-1---------|



|-3--------|-3--2--0--|-5--------|----2--5---|
|-------0--|----2-----|----------|-3--3------|
|----0-----|----2-----|----2-----|----2------|
|----2-----|----------|----2-----|----4------|
|----------|-0--------|----------|-2-----0---|
|-0--------|-------3--|-2--------|-----------|


                                  
|-7--------|-7--6-----4--|-9--------|-10.--7.-------|
|-------4--|----6--------|-11-------|-12.--8.--8.---|
|----4-----|-------6-----|-11-------|----------7.---|
|----4-----|-------------|----------|---------------|
|----------|-4-----------|-9--------|---------------|
|-4--------|-------------|----------|---------------|



                               rit.......
|-9.------------|-7.----------|----------||
|-10.--10.--7.--|-8.--8.------|-2--3--5--||
|------11.--7.--|-----9.--5.--|-3--------||
|---------------|---------6.--|-2--------||
|---------------|-------------|----------||
|---------------|-------------|-2--------||



a Tempo
|---------|---------|---------|---------|
|----4----|----3----|----4----|----3----|
|----4----|----3----|----4----|----3----|
|----4----|----4----|----4----|----4----|
|-2-------|---------|-2-------|---------|
|---------|-2-------|---------|-2-------|



|---------|---------|---------|-----2---||
|----4----|----3----|----4----|-3------o||
|----4----|----3----|----4----|-3-------||
|----4----|----4----|----4----|-4-------||
|-2-------|---------|-2-------|--------o||
|---------|-2-------|---------|-2-------||



\-2.-------

|-------7--|-------5---|-2--------|------------|
|-7--------|-5-------5-|----2-----|-0--2--3----|
|----0-----|----5------|----2--2--|----4-------|
|----4-----|----5------|-0--------|----5-------|
|----------|-0---------|----------|------------|
|-0--------|-----------|----------|-3----------|



|-0--------|-0--------||---------|-------|
|-0-----0--|----4--3--||-4-------|----3--|
|-1--1-----|----3-----||----4----|----3--|
|----------|----2-----||----4----|----4--|
|-4--------|----------||-2-------|-------|
|----------|-2--------||---------|-2-----|


                       rit...................fermete
|---------|-------2--|-------4--|-------6--|-4----*|
|----4----|----3-----|-4--------|-3--------|-2----*|
|----4----|----3-----|----3-----|----3-----|-3----*|
|----4----|----4-----|----4-----|----2-----|------*|
|-2-------|----------|-2--------|----------|-2----*|
|---------|-2--------|----------|-2--------|------*| fine.
Login or Register to remove this ad.

1 comment on Aqua Alta Hiyori -guitar solo-

That was really fun to play!

5

That was really fun to play!