Login or Register to remove this ad.

Adria no Umibe (Aria the Animation) Guitar Tab

Submitted: Jul 02, 2017 by tomorning (Last updated: Jul 04, 2017)

5
Average: 5 (1 vote)
Download | Listen
Game: Aria the Animation
Composer(s): Choro Club, Takeshi Senoo, Mina Kubota
Style: Arrangement, Fingerstyle

AutoScroll: Slow | Medium | Fast
July, 2 / 2017
                                    Seaside of Adria
                                     アドリアの海辺
                          ~ from anime "ARIA The ANIMATION" ~

Music by Takeshi Senoo (妹尾 武) / Choro Club feat.senoo


4/4

Q=146

 (Standard Tuning, EADGBE)
                   >  >        >                 >             >     >  >                                
     H        Q    E  E     E  E  E  E  E  E  E  E     Q    E  E  E  E  E  E     E  E  E  E  Q    Q      
E||--5----------------5--|-----5-----5-----3--------|--0-------------------0--|--------------0----------|
B||--5--------5-------5--|-----5-----5--------5-----|--0----3--2--3--2--3--1--|-----------1-------------|
G||--4-------------0--3--|-----3-----3-----------0--|-------2--2--2--2-----1--|--------1----------------|
D||----------------------|--------------------------|--4----------------------|-----0-------------2/----|
A||----------------------|--------------------------|-------------------------|-------------------------|
E||----------------------|--------------------------|-------------------------|-------------------------|


    >                         >  >        >  >           >                          >           >            
    Q    E  E  E  E  E  E     E  E  E  E  E  E  E  E     E  E  E  E  E  E  E  E     E  E  E  E  E  E  E  E   
|-----------------4--2--0--|--0-----------------------|--------------------------|--------------------------|
|--------------2-----------|-----3-----3-----3-----3--|-----3-----------3--2--0--|--1--------2--------------|
|*----------2--------------|-----2-----2-----2-----2--|-----2--------1-----------|-----1-----1-----1-----1--|
|*-------------------------|--------------4-----------|-----------2--------------|--2--------------2-----2--|
|---0----------------------|--2-----------------------|--------------2-----------|--------------0-----------|
|--------------------------|--------------------------|--0-----------------------|--------------------------|


1__________________________
  >                           >  >        >  >              >        >  >           >                            
  E  E  E   E  E  E  E  E     E  E  E  E  E  E  E  E     E  E  E  E  E  E  E  E     E  E  E  E  E  E  E   E      
------------------4--2--0--|--0--------2-----------0--|--------------------------|--------------0--------------||
---------------2-----------|-----3-----3--3-----------|--2--------3--0--------2--|--------2-----------2--------||
--------1s--2--------------|-----2-----2-----2-----2--|-----1-----1-----1-----1--|--2--------4-----------(4)--*||
-----2---------------------|--------------4-----------|-----2-----2-----2-----2--|-----2-----------2----------*||
--0------------------------|--2-----------------------|--------------0-----------|--0--------------------------||
---------------------------|--------------------------|--0-----------------------|-----------------------------||


2__________________________
  >                           >  >        >  >              >        >  >           >                      
  E  E  E   E  E  E  E  E     E  E  E  E  E  E  E  E     E  E  E  E  E  E  E  E     E  E  E  E  Q    Q     
------------------4--2--0--|--0--------2-----------0--|--------------------------|--------------0----5----|
---------------2-----------|-----3-----3--3-----------|--2--------3--0--------2--|--------2---------------|
--------1s--2--------------|-----2-----2-----2-----2--|-----1-----1-----1-----1--|--2--------4------------|
-----2---------------------|--------------4-----------|-----2-----2-----2-----2--|-----2------------------|
--0------------------------|--2-----------------------|--------------0-----------|--0---------------------|
---------------------------|--------------------------|--0-----------------------|------------------------|


  >                         >                         >                                                 
  E  E  E  E  E  E  Q       E  E  E  E  E  E  Q       E  E  E  E  E  E  E  E     E  E  E  E  Q    Q     
--4--------2--------5----|--4--------2--------5----|--4--------5--7--5--------|-------------------4----|
--------5--------3-------|--------5--------3-------|--------5--------------7--|-----------7------------|
-----4--------2----------|-----4--------2----------|-----4--------------7-----|--------7---------------|
--0--------0-------------|--0--------0-------------|--0-----------0-----------|-----7------------------|
-------------------------|-------------------------|--------------------------|--5---------------------|
-------------------------|-------------------------|--------------------------|------------------------|


                                                                                  >                        
  E  E  E  E  E  E  Q       E  E  E  E  E  E  Q       E  E  E  E  E   E  E  E     E  E  E  E  E  E  E  E   
--------------------4----|--------------------4----|------------------------0--|-----------------0-----0--|
--7--------5-------------|--7--------5-------------|--7--------5---------------|--------------------------|
--------4--------4-------|--------4--------4-------|--------4------------------|-----------3--------------|
-----6--------6----------|-----6--------6----------|-----6--------6h--7--------|--------2-----------------|
--4--------4-------------|--4--------4-------------|--4--------4---------------|-----4--------------------|
-------------------------|-------------------------|---------------------------|--2-----------------------|


  E  E  E  E  E  E  E  E     E  E  E  E  E  E  E  E     E  E  E  E  E  E  E  E     E  E  E  E  Q    E  E   
-----------------------7--|--------------------------|-----------------------5--|-------------------2--4--|
-----------3--2--3--------|--------------------3-----|--3--------2-----2--------|-----------2-------------|
-----2-----2-----2--------|-----4-----4-----4-----0--|--------2-----5-----------|--------2----------------|
-----4-----4-----4--------|-----4-----4--------------|-----4--------------4--3--|-----2-------------3--2--|
--2-----------0-----0-----|--------------4-----------|--------------------------|-------------------------|
--------------------------|--4-----------------------|--2-----------------------|--0----------------------|


   E  E  E  E  E  E  Q       E  E  E  E  E  Q    E     E  E  E  E  Q    Q       E  E  E  E  E  E  E  E   
--------------------------|--7-------------------0--|--------------0---------|-----0-----------0--------|
--10--------9--------7----|-----------0-----9-------|-----------3-------3----|--2-----2--1--------------|
---------6--------6-------|-------------------------|--------2---------------|--1--------1--------------|
------7--------7----------|--------7----------------|-----4------------------|--2--------2--------------|
--6-----------------------|-----6-------------------|------------------------|--------------------------|
--------------------------|--7----------------------|--0---------------------|--0-----------------2--4--|


  >                         >  >        >  >           >                          >           >            
  Q    E  E  E  E  E  E     E  E  E  E  E  E  E  E     E  E  E  E  E  E  E  E     E  E  E  E  E  E  E  E   
----------------4--2--0--|--0-----------------------|--------------------------|--------------------------|
-------------2-----------|-----3-----3-----3-----3--|-----3-----------3--2--0--|--1--------2--------------|
----------2--------------|-----2-----2-----2-----2--|-----2--------1-----------|-----1-----1-----1-----1--|
-------------------------|--------------4-----------|-----------2--------------|--2--------------2-----2--|
--0----------------------|--2-----------------------|--------------2-----------|--------------0-----------|
-------------------------|--------------------------|--0-----------------------|--------------------------|


  >                           >  >        >  >              >        >  >           >                          
  E  E  E   E  E  E  E  E     E  E  E  E  E  E  E  E     E  E  E  E  E  E  E  E     E  E  E  E  E  E  E   E    
------------------4--2--0--|--0--------2-----------0--|--------------------------|--------------0-------------|
---------------2-----------|-----3-----3--3-----------|--2--------3--0--------2--|--------2-----------2-------|
--------1s--2--------------|-----2-----2-----2-----2--|-----1-----1-----1-----1--|--2--------4-----------(4)--|
-----2---------------------|--------------4-----------|-----2-----2-----2-----2--|-----2-----------2----------|
--0------------------------|--2-----------------------|--------------0-----------|--0-------------------------|
---------------------------|--------------------------|--0-----------------------|----------------------------|


  >                         >  >        >  >           >                          >           >            
  Q    E  E  E  E  E  E     E  E  E  E  E  E  E  E     E  E  E  E  E  E  E  E     E  E  E  E  E  E  E  E   
----------------4--2--0--|--0-----------------------|--------------------------|--------------------------|
-------------2-----------|-----3-----3-----3-----3--|-----3-----------3--2--0--|--1--------2--------------|
----------2--------------|-----2-----2-----2-----2--|-----2--------1-----------|-----1-----1-----1-----1--|
-------------------------|--------------4-----------|-----------2--------------|--2--------------2-----2--|
--0----------------------|--2-----------------------|--------------2-----------|--------------0-----------|
-------------------------|--------------------------|--0-----------------------|--------------------------|


  >                                                                                >                       
  E  E  E   E  E  E  E  E     E  E  E  E  E  E  Q       E  E  E  E  E  E  E  E     Q    E  E  E  E  E  E   
------------------0--5--7--|--9--------7-------------|-----------0--2--4--2--0--|--7-------------0-----5--|
---------------2-----------|-------------------------|--------3-----------------|-------5-----------------|
--------1s--2--------------|--------7-----------7----|--------2-----------------|----------4-----------6--|
-----2---------------------|-----7-----------7-------|-----2--------------------|----------6-----------6--|
--0------------------------|--9-----------8----------|--------------------------|--0-------------------0--|
---------------------------|-------------------------|--0-----------------------|----------0--------------|

                                                                                            (*
                            >                                                                       
  E  E  E  E  E  E  Q       Q    E  E  E  E  E  E     E  E  E  E  E  E  E  E     E  E  E  E  Q      
-----------------0-------|-------0--------0--------|-----0-----------0--------|--------------0----||
-----5-------------------|--2-------0-----------2--|-----------0--------------|--------2----------||
-----------4--------4----|--1-------1-----------1--|-----------1-----------1--|-----------4-------||
-----------6--------6----|--2-------2-----------2--|-----------2--------4-----|-----2-------------||
-------------------------|--0-------------------0--|--------------------------|--0----------------||
-----------0-------------|----------0--------------|-----------0--------------|-------------------||  fine...


Login or Register to remove this ad.

3 comments on Adria no Umibe

bar-26 E E E E E E E

bar-26

  E  E  E  E  E  E  E  E     
--------------------------|
--------------------3-----|
-----4-----4-----4-----0.-|
-----4-----4--------------|
--------------4-----------|
--4-----------------------|

bar-29
  E  E  E  E  E  E  Q     
-------------------------|
-10--------9--------7----|
--------6--------6-------|
-----7--------7----------|
--6----------------------|
-------------------------|

Here's a video of me playing

Here's a video of me playing this for the first time, you'll get a feel for how difficult the song is as well as my pointers on how to play it:

https://youtu.be/r3LXf5_DzMw

Awesome work

Another Great tab to*morning, love this one!