Ads

Frozen in the Past (Arcturus: The Curse and Loss of Divinity) Guitar Tab

Submitted: May 01, 2014 by stacatto

5
Average: 5 (1 vote)
Download | Listen
Game: Arcturus: The Curse and Loss of Divinity
Composer(s): soundTeMP
Style: Arrangement, Fingerstyle

AutoScroll: Slow | Medium | Fast
Frozen in the Past
Arcturus: The Curse and Loss of Divinity OST
Composed by SoundTeMP
Transcribed by stacatto

This is pretty true to the original, but has been slightly rearranged and shortened to be 
playable on a single guitar. It's pretty fast-paced, and the fingering can be a little tricky,
so feel free to simplify a bit by e.g. skipping the flairs in measure 5 and 14.

Also make sure to listen to the MIDI or the original on YouTube to get the timing right!

     Q    E  S S E  E  E  E     E  E  S T T E  E  E  E  E     E  E  E  E  S T T E  E  E   
E||--0---------L-------------|-----------------------------|--3--L--1--L--------------0--|
B||--------------1--0-----0--|--1-----0-1-0----------------|--------------5-6-5-2--3-----|
G||--2-----------------1-----|--------------2--1-----2-----|-----0-----0-----------0--2--|
D||-------2--0-2-------------|-----2--------------2-----2--|--------2-----------2--------|
A||--------------3--2--------|--0-----2-----0--------3-----|--------------4---L----------|
E||--------------------4--0--|-----------------4-----------|--3--------------------------|


  E  E  E  E  E  E  E  E     E  S S E  E  E  T T S E  E     E  E  E  E  E  T T S E  E   
--1--------L--------------|---------------7--5-7-5-3--1--|--0--------L--5--3-5-3-1--0--|
--------------------------|--3--L-0-------0--------------|-----------------------------|
-----2--L--2--L--2--L--2--|-----2---0--------------0-----|-----0-----0-----------------|
--3-----2-----0-----------|--0---------3-----7---L----3--|--2-----------3--------3--2--|
--------------------3-----|------------------------------|--------3--------3---L-------|
--------------------------|------------------------------|-----------------------------|


  E  S S E  E  E  E  E  E     E  S S E   T  T T T H           E  E  E  S S E  E  E  E   
---------------------7--5--|--5------L---4--5-4-2-4--------|-----0-------L-------------|
--4---------L--0--4--------|-------------------------------|---------------1--0-----0--|
---------------------------|--2------2--(1)-----L----------|--2--L---------------1-----|
--1--4-2-4--1--------------|-----2-4--------------2--------|--------2--0-2-------------|
---------------------------|-------------------------------|--0------------3--2--------|
------------------2--0--L--|--0------L---------------------|---------------------4--0--|


  E  E  S T T E  E  E  E  E     E  S S E  E  E  S S E  E     E  E  E  E  E  E  E  E   
-----------------------------|--0----L-3--L------------0--|--1--------L--------------|
--1-----0-1-0-1--3-----1--3--|---------------6--2-L-3-----|--------------------------|
--2--------------------------|-----0------0-------2-0--2--|-----2--L--2--L--2--L--2--|
-----------------------------|-------0-2--------2---------|--3-----2-----0-----------|
--0--3--2-----0--------3--2--|--3------------4------------|--------------------3-----|
-----------------4--0--------|----------------------------|--------------------------|


  E  S S E  E  E  E  E  E     E  E  E  T T S  E   T T S E  E     E  S S E  E  E  S S E  E   
---------7--5--3--1--0-----|--0--L--8--7-8-7--5---3-5-3-1--0--|----------------------------|
-------0----------------3--|-----------0----------------------|--3---------L--0---------L--|
--7------0--------0--------|-----0----------------5---L-------|----------------------------|
--0--7---------------0-----|--0--------------(7)--------------|--0--3-2-3--0------------0--|
------------5-----------2--|-----------7------0---3--------0--|---------------2----0-2-----|
---------------3-----------|--------8-------------------1-----|------------------4---------|


        |-3-|               
  E  E  S S S E  H          
--------------------------||
--------------------------||
--2--L--------------------||
-----2--0-2-0-------------||
--0--L--------4--0--------||
--------------------------||

Duration Legend
---------------
W - whole
H - half
Q - quarter
E - 8th
S - 16th
T - 32nd
X - 64th
. - note dotted
|-n-|  - n-tuplets
Login or Register to remove this ad.