Ads

Magenta Another Sky (Arcana Famiglia) Guitar Tab

Submitted: Jul 25, 2018 by einkurogane

5
Average: 5 (1 vote)
Download | Listen
Game: Arcana Famiglia
Composer(s): Yamazo
Style: 2 or more instruments, Arrangement, Artificial harmonics, Fingerstyle

Click here for a video example.

AutoScroll: Slow | Medium | Fast
Anime: Arcana Famiglia
Song: OP Theme - Magenta Another Sky

Arranged by Aethersan 에테르상
https://www.youtube.com/watch?v=7dFJJ10Wpk0


Guitar 1

     ^                             ^                                               NH  
     E  S E  E  S E  S  E  E  S    E  S E  E  S E  S E  E  S    H        E  Q      E   
E||-----------------------------|----------------------------|------------------------|
B||-----------------------------|---------------3----3--5--L-|--L----------------<>4--|
G||--2----2--2-------------0----|--2----2--2----2----2--4--L-|--L----------------<>4--|
D||--2----2--2-------------0----|--2----2--2----0--0----2--L-|--L----------------<>4--|
A||--0--0----3------------------|--0--0----3-----------------|------------------------|
E||---------------1--0s-1--3----|----------------------------|------------------------|


          NH  NH           NH  NH              NH  NH                
  E  E    S   E  S E  E    S   E  S    E  E    S   E  S E  E  E  E   
------------------------------------|-------------------3--3--3--3--|
--1--1--<>4-<>4----1--1--<>4-<>4----|--1--1--<>4-<>4----3--3--3--3--|
--2--2--<>4-<>4----2--2--<>4-<>4----|--2--2--<>4-<>4----------------|
--2--2--<>4-<>4----------<>4-<>4----|--3--3--<>4-<>4----------------|
--0--0-------------3--3-------------|-------------------2--2--2--2--|
------------------------------------|-------------------3--3--3--3--|


          NH  NH           NH  NH              NH  NH                                             
  E  E    S   E  S E  E    S   E  S    E  E    S   E  S E  E  E  E     E  E  S E  S E  E  S E  S  
------------------------------------|-------------------3--3--3--3--|----------------------------|
--1--1--<>4-<>4----1--1--<>4-<>4----|--1--1--<>4-<>4----3--3--3--3--|--1--1--1-1--1-1--1--1-1--1-|
--2--2--<>4-<>4----2--2--<>4-<>4----|--2--2--<>4-<>4----------------|--2--2--2-2--2-2--2--2-2--2-|
--2--2--<>4-<>4----------<>4-<>4----|--3--3--<>4-<>4----------------|--2--2--2-2--2--------------|
--0--0-------------3--3-------------|-------------------2--2--2--2--|--0--0--0-0--0-3--3--3-3--3-|
------------------------------------|-------------------3--3--3--3--|----------------------------|


  E  E  S E  S E  E  S E  S    E  E  S E  S E  E  S E  S    E  E  S E  S E  E  S E  S  
---------------3--3--3-3--3-|----------------------------|---------------3--3--3-3--3-|
--1--1--1-1--1-3--3--3-3--3-|--1--1--1-1--1-1--1--1-1--1-|--1--1--1-1--1-3--3--3-3--3-|
--2--2--2-2--2--------------|--2--2--2-2--2-2--2--2-2--2-|--2--2--2-2--2--------------|
--3--3--3-3--3--------------|--2--2--2-2--2--------------|--3--3--3-3--3--------------|
---------------2--2--2-2--2-|--0--0--0-0--0-3--3--3-3--3-|---------------2--2--2-2--2-|
---------------3--3--3-3--3-|----------------------------|---------------3--3--3-3--3-|


  Q    Q    S E  E  S E     Q    Q    S E  E  S E     Q    E  S S Q    E  S S  
-------------------------|--3----3----3-3--3--3-3--|--------------------------|
-------------------------|--3----3----3-3--3--3-3--|--1----1--1-1-1----1--1-1-|
--2----2----2-2--2--2-2--|-------------------------|--------------------------|
--3----3----3-3--3--3-3--|-------------------------|--2----2--2-2-2----2--2-2-|
--3----3----3-3--3--3-3--|--2----2----2-2--2--2-2--|--3----3--3-3-2----2--2-2-|
--1----1----1-1--1--1-1--|--3----3----3-3--3--3-3--|--------------------------|


  Q    E  S S Q    E  S S    Q    Q    S E  E  S E     Q    E  S S E  E  E  E   
--------------3----3--3-3-|-------------------------|--------------------------|
--1----1--1-1-3----3--3-3-|--3----3----3-3--3-------|--------------------------|
--2----2--2-2-------------|--2----2----2-2--2--1-1--|--2----2--2-2-------------|
--2----2--2-2-------------|--0----0----0-0--0--2-2--|--3----3--3-3-6--6--6--L--|
--0----0--0-0-2----2--2-2-|--0----0----0-0--0--2-2--|--3----3--3-3-6--6--6--L--|
--------------3----3--3-3-|--------------------0-0--|--1----1--1-1-4--4--4--L--|


  Q    S E  E  S E  E  E     Q    S E  E  S E  E  E     Q    S E  E  S E  E  E   
--------------------------|--------------------------|--------------------------|
--4----4-4--4-------------|--8----8-8--8-------------|--4----4-4--4-------------|
--5----5-5--5----5--5-----|--8----8-8--8----7--7-----|--5----5-5--5----5--5-----|
--5----5-5--5----6--6-----|--8----8-8--8----8--8-----|--5----5-5--5----6--6-----|
--3----3-3--3----6--6-----|--6----6-6--6----8--8-----|--3----3-3--3----6--6-----|
-----------------4--4-----|-----------------6--6-----|-----------------4--4-----|


  Q    S E  E  S E  E  E     Q    S E  E  S E  E  E     Q    S E  E  S E  E  E   
--------------------------|--------------------------|--------------------------|
--8----8-8--8-------------|--4----4-4--4-------------|--8----8-8--8-------------|
--8----8-8--8----7--7-----|--5----5-5--5----5--5-----|--8----8-8--8----7--7-----|
--8----8-8--8----8--8-----|--5----5-5--5----6--6-----|--8----8-8--8----8--8-----|
--6----6-6--6----8--8-----|--3----3-3--3----6--6-----|--6----6-6--6----8--8-----|
-----------------6--6-----|-----------------4--4-----|-----------------6--6-----|


                                                        ^                          
  Q    S E  E  S E  E  E     Q    S E  E  S E  E  E     E  S E  E  S E  S E  E  S  
--------------------------|--------------------------|----------------------------|
--4----4-4--4-------------|--8----8-8--8-------------|----------1----1--1-1--3----|
--5----5-5--5----5--5-----|--8----8-8--8----7--7-----|--2--2-2--2----2--2-2--4----|
--5----5-5--5----6--6-----|--8----8-8--8----8--8-----|--2--2-2--2----3--3-3--5----|
--3----3-3--3----6--6-----|--6----6-6--6----8--8-----|--0--0-0--3----0--0-0-------|
-----------------4--4-----|-----------------6--6-----|----------------------------|


  ^                            ^                            ^                           
  E  S E  E  S E  S E  E  S    E  S E  E  S E  S E  E  S    E  S E  E  S E  S E  E  S   
----------------------------|----------------------------|----------------------------||
----------1----3--3-3--3----|----------1----1--1-1--3----|----------1----3--3----5--L-||
--2--2-2--2----2--2-2--2----|--2--2-2--2----2--2-2--4----|--2--2-2--2----2--2----6--L-||
--2--2-2--2----0--0-0--0----|--2--2-2--2----3--3-3--5----|--2--2-2--2----0--0-L-------||
--0--0-0--3-----------------|--0--0-0--3----0--0-0-------|--0--0-0--3------------7----||
----------------------------|----------------------------|----------------------------||

Guitar 2

     W                   W                   W                   E    E  E   E  E  E  S  E  S  
E||-------------------|-------------------|-------------------|-------------------------------|
B||-------------------|-------------------|-------------------|-------------------------------|
G||-------------------|-------------------|-------------------|-----7g9--7--------------------|
D||-------------------|-------------------|-------------------|-------------10--9--7--9-10--7-|
A||-------------------|-------------------|-------------------|-------------------------------|
E||-------------------|-------------------|-------------------|-------------------------------|


  E    E  E   E   S  E   E  E  S    E    E  E   E  E  E  S  E  S    E  S H           Q    S  
---------------------------------|-------------------------------|--------------------------|
---------------------------------|-------------------------------|--------------------------|
-----7g9--7------12-12--10--9--9-|-----7g9--7--------------------|-------9pbr---------------|
--L----------10------------------|-------------10--9--7--9-10--7-|--7-----------------------|
---------------------------------|-------------------------------|--------------------------|
---------------------------------|-------------------------------|--------------------------|


  E    E  E   E  E  E  S  E  S    E    E  E   E   S  E   E  E  S    E    E  E   E  E  E  S  E  S  
-------------------------------|---------------------------------|-------------------------------|
-------------------------------|------------------------10-------|-------------------------------|
-----7g9--7--------------------|-----7g9--7------12-12------9--9-|--L--7g9--7--------------------|
-------------10--9--7--9-10--7-|--L----------10------------------|-------------10--9--7--9-10--7-|
-------------------------------|---------------------------------|-------------------------------|
-------------------------------|---------------------------------|-------------------------------|


  E  S H           E  S S  S    E  S  S E  S  S S E   E  E  S    E  S  S E  S  S  S E  E  E  S  
-----------------------------|--------------------------------|--------------------------------|
-----------------------------|--8-------8-------8-8-----------|--8-------8-------10------------|
-------9pbr-------------9-10-|-----9-10----9-10------10--9--L-|-----9-10----9-10----9--7--9--L-|
--7--------------------------|--------------------------------|--------------------------------|
-----------------------------|--------------------------------|--------------------------------|
-----------------------------|--------------------------------|--------------------------------|


  S  E  E  S E  S  E  E  S E     S  E  E  S  E  S E   E  E  S  
------------------------------|-------------------------------|
------------------------------|-----------------8-8-----------|
--5s-7--9----5--5s-7--9----5--|--5s-7--9-------------10--9----|
------------------------------|-------------10----------------|
------------------------------|-------------------------------|
------------------------------|-------------------------------|


  E  S T  T  Q       S  S  S  S  E  E      Q    E   E  Q     Q       Q        Q     E  E   E   E   
---------------------------------------|--------------------------|-------10g11----10--8----------|
---------------------------------------|---------------9----12----|-----------------------11------|
--7----9p-7-------------------------9--|--10-------10-------------|--8------------------------12--|
------------10pbr------12-12-10-12-----|--------------------------|-------------------------------|
---------------------------------------|--------------------------|-------------------------------|
---------------------------------------|--------------------------|-------------------------------|


   E   E   E   S  E   E  S   E   E     E  S S  E    S E  Q    E  S     S  E  E   E   E   Q    E  S  
------------------------------------|------------------------------|-------------------------------|
--13--11-------------11-------------|------------------------------|--11-11--9----------11---------|
----------13--12-10------8s-10--12--|--8----8-10s--12-8----------8-|------------12--10-------------|
------------------------------------|------------------------------|-------------------------------|
------------------------------------|------------------------------|-------------------------------|
------------------------------------|------------------------------|-------------------------------|


  Q        Q     E  E   E   E      E   E   E   S  E   E  S   E   E     E  S S  E    S E  Q    E  S  
-------10g11----10--8----------|------------------------------------|------------------------------|
-----------------------11------|--13--11-------------11-------------|------------------------------|
--8------------------------12--|----------13--12-10------8s-10--12--|--8----8-10s--12-8----------8-|
-------------------------------|------------------------------------|------------------------------|
-------------------------------|------------------------------------|------------------------------|
-------------------------------|------------------------------------|------------------------------|


   S  E  E   E   E   E   E   E  S                                   
----------------------------10--8-|-------|-------|-------|-------||
--11-11--9----------11------------|-------|-------|-------|-------||
------------12--10------12--------|-------|-------|-------|-------||
----------------------------------|-------|-------|-------|-------||
----------------------------------|-------|-------|-------|-------||
----------------------------------|-------|-------|-------|-------||



Duration Legend
---------------
W - whole
H - half
Q - quarter
E - 8th
S - 16th
T - 32nd
X - 64th
. - note dotted
|-n-|  - n-tuplets


Tablature Legend
----------------
L - tied note
x - dead note
g - grace note
(n) - ghost note
> - accentuded note
NH - natural harmonic
AH - artificial harmonic
TH - tapped harmonic
SH - semi harmonic
PH - pitch harmonic
h - hammer on
p - pull off
b - bend
br - bendRelease
pb - preBend
pbr - preBendRelease
brb - bendReleaseBend
\n/ - tremolo bar dip
\n - tremolo bar dive
-/n - tremolo bar Release up
/n\ - tremolo bar inverted dip
/n - tremolo bar return
-\n - tremolo bar Release down
S - shift slide
s - legato slide
/ -  slide into from below or out of upwards
\ -  slide into from above or out of downwards
~ - vibrato
W - wide vibrato
tr - trill
TP - tremolo picking
T - tapping
S - slap
P - pop
< - fade in
^ - brush up
v - brush down
Login or Register to remove this ad.