Gran Mountains (Rygar) Guitar Tab

Submitted: Dec 16, 2007 by Kotex (Last updated: Dec 16, 2007)

5
Average: 5 (2 votes)
Download | Listen
Game: Rygar
Composer(s): T. Hasuya
Style: 2 or more instruments, Transcription

AutoScroll: Slow | Medium | Fast
Rygar
“Gran Mountains”
NES (July,1987)
Tabbed by: Kotex
Difficulty: Extremely Hard
Started 10/5/2007- Finshed 12/7/07


Guitar I

    T T T T T T T T T T T T T T T T T T T T T T T T T T T T T T T T  
E||------------------------------------------------------------------|
B||------------------------------------------------------------------|
G||------------------------------------------------------------------|
D||----------0---------------0---------------0---------------0-------|
A||------3-----3---3-----3-----3---3-----3-----3---3-----3-----3---3-|
E||----3---3-----3-----3---3-----3-----3---3-----3-----3---3-----3---|


  T T T T T T T T T T T T T T T T T T T T T T T T T T T T T T T T  
------------------------------------------------------------------|
------------------------------------------------------------------|
----------0---------------0---------------0---------------0-------|
------1-----1---1-----1-----1---1-----1-----1---1-----1-----1---1-|
----3---3-----3-----3---3-----3-----3---3-----3-----3---3-----3---|
--3---------------3---------------3---------------3---------------|


  T T T T T T T T T T T T T T T T T T T T T T T T T T T T T T T T  
------------------------------------------------------------------|
------------------------------------------------------------------|
------------------------------------------------------------------|
----------1---------------1---------------1---------------1-------|
------4-----4---4-----4-----4---4-----4-----4---4-----4-----4---4-|
--1-4---4-----4---1-4---4-----4---1-4---4-----4---1-4---4-----4---|


  T T T T T T T T T T T T T T T T T T T T T T T T T T T T T T T T  
------------------------------------------------------------------|
------------------------------------------------------------------|
----------0---------------0---------------0---------------0-------|
----0-3-0---3-0-3---0-3-0---3-0-3---0-3-0---3-0-3---0-3-0---3-0-3-|
------------------------------------------------------------------|
--3---------------3---------------3---------------3---------------|


  T T T T T T T T T T T T T T T T T T T T T T T T T T T T T T T T  
------------------------------------------------------------------|
------------------------------------------------------------------|
------------------------------------------------------------------|
----------0---------------0---------------0---------------0-------|
------3-----3---3-----3-----3---3-----3-----3---3-----3-----3---3-|
----3---3-----3-----3---3-----3-----3---3-----3-----3---3-----3---|


  T T T T T T T T T T T T T T T T T T T T T T T T T T T T T T T T  
------------------------------------------------------------------|
------------------------------------------------------------------|
----------0---------------0---------------0---------------0-------|
------1-----1---1-----1-----1---1-----1-----1---1-----1-----1---1-|
----3---3-----3-----3---3-----3-----3---3-----3-----3---3-----3---|
--3---------------3---------------3---------------3---------------|


  T T T T T T T T T T T T T T T T T T T T T T T T T T T T T T T T  
------------------------------------------------------------------|
------------------------------------------------------------------|
------------------------------------------------------------------|
----------1---------------1---------------1---------------1-------|
------4-----4---4-----4-----4---4-----4-----4---4-----4-----4---4-|
--1-4---4-----4---1-4---4-----4---1-4---4-----4---1-4---4-----4---|


  T T T T T T T T T T T T T T T T T T T T T T T T T T T T T T T T  
------------------------------------------------------------------|
------------------------------------------------------------------|
----------0---------------0---------------0---------------0-------|
----0-3-0---3-0-3---0-3-0---3-0-3---0-3-0---3-0-3---0-3-0---3-0-3-|
------------------------------------------------------------------|
--3---------------3---------------3---------------3---------------|


  T T T T T T T T T T T T T T T T T T T T T T T T T T T T T T T T  
------------------------------------------------------------------|
------------------------------------------------------------------|
------------------------------------------------------------------|
----------0---------------0---------------0---------------0-------|
------3-----3---3-----3-----3---3-----3-----3---3-----3-----3---3-|
----3---3-----3-----3---3-----3-----3---3-----3-----3---3-----3---|


  T T T T T T T T T T T T T T T T T T T T T T T T T T T T T T T T  
------------------------------------------------------------------|
------------------------------------------------------------------|
----------0---------------0---------------0---------------0-------|
------1-----1---1-----1-----1---1-----1-----1---1-----1-----1---1-|
----3---3-----3-----3---3-----3-----3---3-----3-----3---3-----3---|
--3---------------3---------------3---------------3---------------|


  T T T T T T T T T T T T T T T T T T T T T T T T T T T T T T T T  
------------------------------------------------------------------|
------------------------------------------------------------------|
------------------------------------------------------------------|
----------1---------------1---------------1---------------1-------|
------4-----4---4-----4-----4---4-----4-----4---4-----4-----4---4-|
--1-4---4-----4---1-4---4-----4---1-4---4-----4---1-4---4-----4---|


  T T T T T T T T T T T T T T T T T T T T T T T T T T T T T T T T  
------------------------------------------------------------------|
------------------------------------------------------------------|
----------0---------------0---------------0---------------0-------|
----0-3-0---3-0-3---0-3-0---3-0-3---0-3-0---3-0-3---0-3-0---3-0-3-|
------------------------------------------------------------------|
--3---------------3---------------3---------------3---------------|


  T T T T T T T T T T T T T T T T T T T T T T T T T T T T T T T T  
------------------------------------------------------------------|
------------------------------------------------------------------|
------------------------------------------------------------------|
----------0---------------0---------------0---------------0-------|
------3-----3---3-----3-----3---3-----3-----3---3-----3-----3---3-|
----3---3-----3-----3---3-----3-----3---3-----3-----3---3-----3---|


  T T T T T T T T T T T T T T T T T T T T T T T T T T T T T T T T  
------------------------------------------------------------------|
------------------------------------------------------------------|
----------0---------------0---------------0---------------0-------|
------1-----1---1-----1-----1---1-----1-----1---1-----1-----1---1-|
----3---3-----3-----3---3-----3-----3---3-----3-----3---3-----3---|
--3---------------3---------------3---------------3---------------|


  T T T T T T T T T T T T T T T T T T T T T T T T T T T T T T T T  
------------------------------------------------------------------|
------------------------------------------------------------------|
------------------------------------------------------------------|
----------1---------------1---------------1---------------1-------|
------4-----4---4-----4-----4---4-----4-----4---4-----4-----4---4-|
--1-4---4-----4---1-4---4-----4---1-4---4-----4---1-4---4-----4---|


  T T T T T T T T T T T T T T T T T T T T T T T T T T T T T T T T   
------------------------------------------------------------------||
------------------------------------------------------------------||
----------0---------------0---------------0---------------0-------||
----0-3-0---3-0-3---0-3-0---3-0-3---0-3-0---3-0-3---0-3-0---3-0-3-||
------------------------------------------------------------------||
--3---------------3---------------3---------------3---------------||




Guitar II

    W                   W                   W                 
E||-------------------|-------------------|-------------------|
B||-------------------|-------------------|-------------------|
G||-------------------|-------------------|-------------------|
D||-------------------|-------------------|-------------------|
A||-------------------|-------------------|-------------------|
E||-------------------|-------------------|-------------------|


  W                   Q.     T S. S S S S S S S  S  
-------------------|------------------1-3-5-7-8-10-|
-------------------|--1------L----3-4--------------|
-------------------|-------------------------------|
-------------------|-------------------------------|
-------------------|-------------------------------|
-------------------|-------------------------------|


   Q.     T S.  E.  T T  E.  T T  
--11------L----------------------|
------------------------13---L---|
---------------12---L------------|
---------------------------------|
---------------------------------|
---------------------------------|






   T  T  T  T  T  T  T  T  E.  T T  E.  T T  E.  T T  
--13-15-13-15-13-15-13-15-13---L---------------------|
-----------------------------------14---L---13---L---|
-----------------------------------------------------|
-----------------------------------------------------|
-----------------------------------------------------|
-----------------------------------------------------|


   Q.     T S.  Q.     T S.     Q.     T S.  S  S  S  S  S  S  S  S  
---------------15------L----|------------------------------------10-|
--12------L-----------------|---------------------------10-12-13----|
----------------------------|---------------------10-12-------------|
----------------------------|---------------12-13-------------------|
----------------------------|--15------L----------------------------|
----------------------------|---------------------------------------|


   Q.     T S.  E.  T T  E.  T T  
--11------L----------------------|
------------------------13---L---|
---------------12---L------------|
---------------------------------|
---------------------------------|
---------------------------------|


   T  T  T  T  T  T  T  T  E.  T T  E.  T T  E.  T T  
--13-15-13-15-13-15-13-15-13---L---------------------|
-----------------------------------14---L---13---L---|
-----------------------------------------------------|
-----------------------------------------------------|
-----------------------------------------------------|
-----------------------------------------------------|


   Q.     T S.  Q.     T S.     Q.     T S.  S  S  S  S  S  S  S  S  
---------------15------L----|------------------------------------10-|
--12------L-----------------|---------------------------10-12-13----|
----------------------------|---------------------10-12-------------|
----------------------------|---------------12-13-------------------|
----------------------------|--15------L----------------------------|
----------------------------|---------------------------------------|


   Q.     T S.  E.  T T  E.  T T  
--11------L----------------------|
------------------------13---L---|
---------------12---L------------|
---------------------------------|
---------------------------------|
---------------------------------|


   T  T  T  T  T  T  T  T  E.  T T  E.  T T  E.  T T  
--13-15-13-15-13-15-13-15-13---L---------------------|
-----------------------------------14---L---13---L---|
-----------------------------------------------------|
-----------------------------------------------------|
-----------------------------------------------------|
-----------------------------------------------------|


   Q.     T S.  Q.     T S T   
---------------15------L-----||
--12------L------------------||
-----------------------------||
-----------------------------||
-----------------------------||
-----------------------------||


Guitar III



   W                   W                   W                 
E||-------------------|-------------------|-------------------|
B||-------------------|-------------------|-------------------|
G||-------------------|-------------------|-------------------|
D||-------------------|-------------------|-------------------|
A||-------------------|-------------------|-------------------|
E||-------------------|-------------------|-------------------|


  W                   W                   W                   W                 
-------------------|-------------------|-------------------|-------------------|
-------------------|-------------------|-------------------|-------------------|
-------------------|-------------------|-------------------|-------------------|
-------------------|-------------------|-------------------|-------------------|
-------------------|-------------------|-------------------|-------------------|
-------------------|-------------------|-------------------|-------------------|


  W                   E.  T T E.  T T E.  T T E.  T T  
-------------------|----------------------------------|
-------------------|----------1---L---3---L---4---L---|
-------------------|--0---L---------------------------|
-------------------|----------------------------------|
-------------------|----------------------------------|
-------------------|----------------------------------|


                  |--3--|   |---3---|                               
  E.  T T E.  T T E  E  E   E   E   E      H        E.  S  E.  T T  
--1---L---3---L---5--7--8--10--11--13--|---------------------------|
---------------------------------------|---------------------------|
---------------------------------------|--13--------L-----10---L---|
---------------------------------------|---------------------------|
---------------------------------------|---------------------------|
---------------------------------------|---------------------------|


   E   E   E   E  E  E  E  E     E.  T T E.  T T E.  T T E.  T T  
------------------------------|----------------------------------|
------------------------------|------------------3---L---4---L---|
--12----------10--8--7--5--4--|----------5---L-------------------|
------12--13------------------|--5---L---------------------------|
------------------------------|----------------------------------|
------------------------------|----------------------------------|







                  |--3--|   |---3---|                               
  E.  T T E.  T T E  E  E   E   E   E      H        E.  S  E.  T T  
--1---L---3---L---5--7--8--10--11--13--|---------------------------|
---------------------------------------|---------------------------|
---------------------------------------|--13--------L-----10---L---|
---------------------------------------|---------------------------|
---------------------------------------|---------------------------|
---------------------------------------|---------------------------|


   E   E   E   E  E  E  E  S. T   
--------------------------------||
--------------------------------||
--12----------10--8--7--5--4----||
------12--13--------------------||
--------------------------------||
--------------------------------||


Guitar IV


     W                   W                   W                 
E||-------------------|-------------------|-------------------|
B||-------------------|-------------------|-------------------|
G||-------------------|-------------------|-------------------|
D||-------------------|-------------------|-------------------|
A||-------------------|-------------------|-------------------|
E||-------------------|-------------------|-------------------|


  W                   W                   W                   W                 
-------------------|-------------------|-------------------|-------------------|
-------------------|-------------------|-------------------|-------------------|
-------------------|-------------------|-------------------|-------------------|
-------------------|-------------------|-------------------|-------------------|
-------------------|-------------------|-------------------|-------------------|
-------------------|-------------------|-------------------|-------------------|


  W                   W                   W                   W                 
-------------------|-------------------|-------------------|-------------------|
-------------------|-------------------|-------------------|-------------------|
-------------------|-------------------|-------------------|-------------------|
-------------------|-------------------|-------------------|-------------------|
-------------------|-------------------|-------------------|-------------------|
-------------------|-------------------|-------------------|-------------------|


  W                   E  E  E  E  E  E  E  E     E   E  E   E  E   E  E   E   
-------------------|-----8-----8-----8-----8--|--8--11--8--11--8--11--8--11--|
-------------------|--8--8--8--8--8--8--8--8--|--8--13--8--13--8--13--8--13--|
-------------------|--8-----8-----8-----8-----|------------------------------|
-------------------|--------------------------|------------------------------|
-------------------|--------------------------|------------------------------|
-------------------|--------------------------|------------------------------|


   E  E   E  E   E  E   E  E     E   E   E   E   E   E   E   S.T   
------9------9------9------9--|--7--13------13------13------13---||
---9--9---9--9---9--9---9--9--|--8--12--12--12--12--12--12--12---||
--10-----10-----10-----10-----|---------12------12------12-------||
------------------------------|----------------------------------||
------------------------------|----------------------------------||
------------------------------|----------------------------------||



Duration Legend
---------------
W - whole
H - half
Q - quarter
E - 8th
S - 16th
T - 32nd
X - 64th
. - note dotted
|-n-|  - n-tuplets


Tablature Legend
----------------
L - tied note
Login or Register to remove this ad.