Main Movie Theme (Mortal Kombat) Guitar Tab

Submitted: Sep 29, 2007 by Jon Wagner (Last updated: Jan 18, 2010)

4.578945
Average: 4.6 (19 votes)
Download | Listen
Game: Mortal Kombat
Composer(s): Dan Forden
Style: 2 or more instruments, Transcription

AutoScroll: Slow | Medium | Fast
                                     KOMBAT

  Q=137
 4/4
  Gtr II
  W          S S S S S S S S S S S S S S S S
|----------|---------------------------------|
|----------|---------1-------3-------5---3---|
|----------|-2---2-------2-------2-----------|
|----------|---------------------------------|
|----------|---------------------------------|
|----------|---------------------------------|

  S S S S S S S S S S S S S S S S   S S S S S S S S S S S S S S S S
|---------0-------3-------0-------|---------------------------------|
|-1---1-------1-------1-------1---|---------0-------1-------3---1---|
|---------------------------------|-0---0-------0-------0-----------|
|---------------------------------|---------------------------------|
|---------------------------------|---------------------------------|
|---------------------------------|---------------------------------|

  S S S S S S S S S S S S S S S S   S S S S S S S S S S S S S S S S
|---------------------------------|---------------------------------|
|-----------------1-------1---0---|---------1-------3-------5---3---|
|---------2-----------------------|-2---2-------2-------2-----------|
|-3---3-------3-------3-----------|---------------------------------|
|---------------------------------|---------------------------------|
|---------------------------------|---------------------------------|

  S S S S S S S S S S S S S S S S   S S S S S S S S S S S S S S S S
|---------0-------3-------0-------|---------------------------------|
|-1---1-------1-------1-------1---|---------0-------1-------3---1---|
|---------------------------------|-0---0-------0-------0-----------|
|---------------------------------|---------------------------------|
|---------------------------------|---------------------------------|
|---------------------------------|---------------------------------|

                                    Gtr I
  S S S S S S S S S S S S S S S S   E S S +S  S E S E S S S S S
|---------------------------------|-5---5-(5)---5---5---3---8---|
|-----------------1-------1---0---|-----------------------------|
|---------2-----------------------|-----------------------------|
|-3---3-------3-------3-----------|-----------------------------|
|---------------------------------|-----------------------------|
|---------------------------------|-----------------------------|

   E S  S  +S  S  E S  E S S S S S
|----------------------------------|
|-10---10-(10)---10---10---8-------|
|------------------------------9---|
|----------------------------------|
|----------------------------------|
|----------------------------------|

   E S  S  +S  S  E S  E S S S S S    E S  S  +S  S  S S  S  S S  S  S S E
|------------------------------8---|---------------------------------------|
|-10---10-(10)---10---10---8-------|-10---10-(10)---10---10-10---10-10-----|
|----------------------------------|---------------------------------------|
|----------------------------------|---------------------------------------|
|----------------------------------|---------------------------------------|
|----------------------------------|---------------------------------------|

   E S  S  +S  S  E S  E S S S S S    E S  S  +S  S  E S  E S S S S S
|------------------------------8---|-----------------------------------|
|-10---10-(10)---10---10---8-------|-10---10-(10)---10---10---8--------|
|----------------------------------|------------------------------9----|
|----------------------------------|-----------------------------------|
|----------------------------------|-----------------------------------|
|----------------------------------|-----------------------------------|

   E S  S  +S  S  E S  E S S S S S    E S  S  +S  S  S S  S  S S  S  S S E
|------------------------------8---|---------------------------------------|
|-10---10-(10)---10---10---8-------|-10---10-(10)---10---10-10---10-10-----|
|----------------------------------|---------------------------------------|
|----------------------------------|---------------------------------------|
|----------------------------------|---------------------------------------|
|----------------------------------|---------------------------------------|

   S  S S  S S S  S  S S  S S S  S  S  S S
|----12------8--------------8--------------|
|-10------10-----10-11---10-----10-11------|
|-------------------------------------12---|
|------------------------------------------|
|------------------------------------------|
|------------------------------------------|

   S  S S  S S S  S  S S  S S S  S  S  S S
|----12------8--------------8--------------|
|-10------10-----10-11---10-----10-11------|
|-------------------------------------12---|
|------------------------------------------|
|------------------------------------------|
|------------------------------------------|

   S  S S  S S S  S  S S  S S S  S  S  S S
|----12------8--------------8--------------|
|-10------10-----10-11---10-----10-11------|
|-------------------------------------12---|
|------------------------------------------|
|------------------------------------------|
|------------------------------------------|

   S  S S  S S S S S S S  S S  S S E
|----12------8-----------------------|
|-10------10-----8-8---8-10---10-----|
|------------------------------------|
|------------------------------------|
|------------------------------------|
|------------------------------------|

   S  S S  S S S  S  S S  S S S  S  S  S S
|----12------8--------------8--------------|
|-10------10-----10-11---10-----10-11------|
|-------------------------------------12---|
|------------------------------------------|
|------------------------------------------|
|------------------------------------------|

   S  S S  S S S  S  S S  S S S  S  S  S S
|----12------8--------------8--------------|
|-10------10-----10-11---10-----10-11------|
|-------------------------------------12---|
|------------------------------------------|
|------------------------------------------|
|------------------------------------------|

   S  S S  S S S  S  S S  S S S  S  S  S S   W          W
|----12------8--------------8--------------|----------|------|
|-10------10-----10-11---10-----10-11------|----------|------|
|-------------------------------------12---|----------|------|
|------------------------------------------|----------|------|
|------------------------------------------|----------|------|
|------------------------------------------|----------|------|

  W          W          W          W
|----------|----------|----------|------|
|----------|----------|----------|------|
|----------|----------|----------|------|
|----------|----------|----------|------|
|----------|----------|----------|------|
|----------|----------|----------|------|

  W          W          W
|----------|----------|------|
|----------|----------|------|
|----------|----------|------|
|----------|----------|------|
|----------|----------|------|
|----------|----------|------|

   E   S  S  +S  S  E   S  E   S S S S S
|------------------------------------8---|
|-10-----10-(10)---10-----10-----8-------|
|----------------------------------------|
|----------------------------------------|
|----------------------------------------|
|----------------------------------------|
|
| Gtr II
|  S S S  S   S  S  S S S  S S S S S S S
|----------------------------------------|
|-------------1---------3--------5---3---|
|--2---2------------2--------2-----------|
|----------------------------------------|
|----------------------------------------|
|----------------------------------------|

   E   S  S  +S  S  E   S  E   S S S S S
|----------------------------------------|
|-10-----10-(10)---10-----10-----8-------|
|------------------------------------9---|
|----------------------------------------|
|----------------------------------------|
|----------------------------------------|
|
|  S S S  S   S  S  S S S  S S S S S S S
|-------------0---------3--------0-------|
|--1---1------------1--------1-------1---|
|----------------------------------------|
|----------------------------------------|
|----------------------------------------|
|----------------------------------------|

   E   S  S  +S  S  E   S  E   S S S S S
|------------------------------------8---|
|-10-----10-(10)---10-----10-----8-------|
|----------------------------------------|
|----------------------------------------|
|----------------------------------------|
|----------------------------------------|
|
|  S S S  S   S  S  S S S  S S S S S S S
|----------------------------------------|
|-------------0---------1--------3---1---|
|--0---0------------0--------0-----------|
|----------------------------------------|
|----------------------------------------|
|----------------------------------------|

   E   S  S  +S  S  S S  S  S S  S  S S E
|-------------------------------------------|
|-10-----10-(10)---10---10-10---10-10-------|
|-------------------------------------------|
|-------------------------------------------|
|-------------------------------------------|
|-------------------------------------------|
|
|  S S S  S   S  S  S S  S  S S  S  S S S S
|-------------------------------------------|
|------------------------1----------1---0---|
|-------------2-----------------------------|
|--3---3------------3---------3-------------|
|-------------------------------------------|
|-------------------------------------------|

   E S  S  +S  S  E S  E S S S S S    E S  S  +S  S  E S  E S S S S S
|------------------------------8---|-----------------------------------|
|-10---10-(10)---10---10---8-------|-10---10-(10)---10---10---8--------|
|----------------------------------|------------------------------9----|
|----------------------------------|-----------------------------------|
|----------------------------------|-----------------------------------|
|----------------------------------|-----------------------------------|

   E S  S  +S  S  E S  E S S S S S    E S  S  +S  S  S S  S  S S  S  S S E
|------------------------------8---|---------------------------------------|
|-10---10-(10)---10---10---8-------|-10---10-(10)---10---10-10---10-10-----|
|----------------------------------|---------------------------------------|
|----------------------------------|---------------------------------------|
|----------------------------------|---------------------------------------|
|----------------------------------|---------------------------------------|

   S  S S  S S S  S  S S  S S S  S  S  S S
|----12------8--------------8--------------|
|-10------10-----10-11---10-----10-11------|
|-------------------------------------12---|
|------------------------------------------|
|------------------------------------------|
|------------------------------------------|

   S  S S  S S S  S  S S  S S S  S  S  S S
|----12------8--------------8--------------|
|-10------10-----10-11---10-----10-11------|
|-------------------------------------12---|
|------------------------------------------|
|------------------------------------------|
|------------------------------------------|

   S  S S  S S S  S  S S  S S S  S  S  S S
|----12------8--------------8--------------|
|-10------10-----10-11---10-----10-11------|
|-------------------------------------12---|
|------------------------------------------|
|------------------------------------------|
|------------------------------------------|

   S  S S  S S S S S S S  S S  S S E
|----12------8-----------------------|
|-10------10-----8-8---8-10---10-----|
|------------------------------------|
|------------------------------------|
|------------------------------------|
|------------------------------------|

   S  S S  S S S  S  S S  S S S  S  S  S S
|----12------8--------------8--------------|
|-10------10-----10-11---10-----10-11------|
|-------------------------------------12---|
|------------------------------------------|
|------------------------------------------|
|------------------------------------------|

   S  S S  S S S  S  S S  S S S  S  S  S S
|----12------8--------------8--------------|
|-10------10-----10-11---10-----10-11------|
|-------------------------------------12---|
|------------------------------------------|
|------------------------------------------|
|------------------------------------------|

   S  S S  S S S  S  S S  S S S  S  S  S S
|----12------8--------------8--------------|
|-10------10-----10-11---10-----10-11------|
|-------------------------------------12---|
|------------------------------------------|
|------------------------------------------|
|------------------------------------------|

   S  S S  S S S S S S S  S S  S S E
|----12------8-----------------------|
|-10------10-----8-8---8-10---10-----|
|------------------------------------|
|------------------------------------|
|------------------------------------|
|------------------------------------|

  W          W          W          W
|----------|----------|----------|------|
|----------|----------|----------|------|
|----------|----------|----------|------|
|----------|----------|----------|------|
|----------|----------|----------|------|
|----------|----------|----------|------|

  W          W          W          W
|----------|----------|----------|------|
|----------|----------|----------|------|
|----------|----------|----------|------|
|----------|----------|----------|------|
|----------|----------|----------|------|
|----------|----------|----------|------|

   E   S  S  +S  S  E   S  E   S S S S S
|------------------------------------8---|
|-10-----10-(10)---10-----10-----8-------|
|----------------------------------------|
|----------------------------------------|
|----------------------------------------|
|----------------------------------------|
|
| Gtr II
|  S S S  S   S  S  S S S  S S S S S S S
|----------------------------------------|
|-------------1---------3--------5---3---|
|--2---2------------2--------2-----------|
|----------------------------------------|
|----------------------------------------|
|----------------------------------------|

   E   S  S  +S  S  E   S  E   S S S S S
|----------------------------------------|
|-10-----10-(10)---10-----10-----8-------|
|------------------------------------9---|
|----------------------------------------|
|----------------------------------------|
|----------------------------------------|
|
|  S S S  S   S  S  S S S  S S S S S S S
|-------------0---------3--------0-------|
|--1---1------------1--------1-------1---|
|----------------------------------------|
|----------------------------------------|
|----------------------------------------|
|----------------------------------------|

   E   S  S  +S  S  E   S  E   S S S S S
|------------------------------------8---|
|-10-----10-(10)---10-----10-----8-------|
|----------------------------------------|
|----------------------------------------|
|----------------------------------------|
|----------------------------------------|
|
|  S S S  S   S  S  S S S  S S S S S S S
|----------------------------------------|
|-------------0---------1--------3---1---|
|--0---0------------0--------0-----------|
|----------------------------------------|
|----------------------------------------|
|----------------------------------------|

   E   S  S  +S  S  S S  S  S S  S  S S E
|-------------------------------------------|
|-10-----10-(10)---10---10-10---10-10-------|
|-------------------------------------------|
|-------------------------------------------|
|-------------------------------------------|
|-------------------------------------------|
|
|  S S S  S   S  S  S S  S  S S  S  S S S S
|-------------------------------------------|
|------------------------1----------1---0---|
|-------------2-----------------------------|
|--3---3------------3---------3-------------|
|-------------------------------------------|
|-------------------------------------------|

   E   S  S  +S  S  E   S  E   S S S S S
|------------------------------------8---|
|-10-----10-(10)---10-----10-----8-------|
|----------------------------------------|
|----------------------------------------|
|----------------------------------------|
|----------------------------------------|
|
|  S S S  S   S  S  S S S  S S S S S S S
|----------------------------------------|
|-------------1---------3--------5---3---|
|--2---2------------2--------2-----------|
|----------------------------------------|
|----------------------------------------|
|----------------------------------------|

   E   S  S  +S  S  E   S  E   S S S S S
|----------------------------------------|
|-10-----10-(10)---10-----10-----8-------|
|------------------------------------9---|
|----------------------------------------|
|----------------------------------------|
|----------------------------------------|
|
|  S S S  S   S  S  S S S  S S S S S S S
|-------------0---------3--------0-------|
|--1---1------------1--------1-------1---|
|----------------------------------------|
|----------------------------------------|
|----------------------------------------|
|----------------------------------------|

   E   S  S  +S  S  E   S  E   S S S S S
|------------------------------------8---|
|-10-----10-(10)---10-----10-----8-------|
|----------------------------------------|
|----------------------------------------|
|----------------------------------------|
|----------------------------------------|
|
|  S S S  S   S  S  S S S  S S S S S S S
|----------------------------------------|
|-------------0---------1--------3---1---|
|--0---0------------0--------0-----------|
|----------------------------------------|
|----------------------------------------|
|----------------------------------------|

   E   S  S  +S  S  S S  S  S S  S  S S E
|-------------------------------------------|
|-10-----10-(10)---10---10-10---10-10-------|
|-------------------------------------------|
|-------------------------------------------|
|-------------------------------------------|
|-------------------------------------------|
|
|  S S S  S   S  S  S S  S  S S  S  S S S S
|-------------------------------------------|
|------------------------1----------1---0---|
|-------------2-----------------------------|
|--3---3------------3---------3-------------|
|-------------------------------------------|
|-------------------------------------------|

   S  S S  S S S  S  S S  S S S  S  S  S S
|----12------8--------------8--------------|
|-10------10-----10-11---10-----10-11------|
|-------------------------------------12---|
|------------------------------------------|
|------------------------------------------|
|------------------------------------------|

   S  S S  S S S  S  S S  S S S  S  S  S S
|----12------8--------------8--------------|
|-10------10-----10-11---10-----10-11------|
|-------------------------------------12---|
|------------------------------------------|
|------------------------------------------|
|------------------------------------------|

   S  S S  S S S  S  S S  S S S  S  S  S S
|----12------8--------------8--------------|
|-10------10-----10-11---10-----10-11------|
|-------------------------------------12---|
|------------------------------------------|
|------------------------------------------|
|------------------------------------------|

   S  S S  S S S S S S S  S S  S S E
|----12------8-----------------------|
|-10------10-----8-8---8-10---10-----|
|------------------------------------|
|------------------------------------|
|------------------------------------|
|------------------------------------|

   S  S S  S S S  S  S S  S S S  S  S  S S
|----12------8--------------8--------------|
|-10------10-----10-11---10-----10-11------|
|-------------------------------------12---|
|------------------------------------------|
|------------------------------------------|
|------------------------------------------|

   S  S S  S S S  S  S S  S S S  S  S  S S
|----12------8--------------8--------------|
|-10------10-----10-11---10-----10-11------|
|-------------------------------------12---|
|------------------------------------------|
|------------------------------------------|
|------------------------------------------|

   S  S S  S S S  S  S S  S S S  S  S  S S   W          W
|----12------8--------------8--------------|----------|------|
|-10------10-----10-11---10-----10-11------|----------|------|
|-------------------------------------12---|----------|------|
|------------------------------------------|----------|------|
|------------------------------------------|----------|------|
|------------------------------------------|----------|------|

  W          W          W          W
|----------|----------|----------|------|
|----------|----------|----------|------|
|----------|----------|----------|------|
|----------|----------|----------|------|
|----------|----------|----------|------|
|----------|----------|----------|------|

  W          W          W
|----------|----------|------|
|----------|----------|------|
|----------|----------|------|
|----------|----------|------|
|----------|----------|------|
|----------|----------|------|

   E   S  S  +S  S  E   S  E   S S S S S
|------------------------------------8---|
|-10-----10-(10)---10-----10-----8-------|
|----------------------------------------|
|----------------------------------------|
|----------------------------------------|
|----------------------------------------|
|
| Gtr II
|  S S S  S   S  S  S S S  S S S S S S S
|----------------------------------------|
|-------------1---------3--------5---3---|
|--2---2------------2--------2-----------|
|----------------------------------------|
|----------------------------------------|
|----------------------------------------|

   E   S  S  +S  S  E   S  E   S S S S S
|----------------------------------------|
|-10-----10-(10)---10-----10-----8-------|
|------------------------------------9---|
|----------------------------------------|
|----------------------------------------|
|----------------------------------------|
|
|  S S S  S   S  S  S S S  S S S S S S S
|-------------0---------3--------0-------|
|--1---1------------1--------1-------1---|
|----------------------------------------|
|----------------------------------------|
|----------------------------------------|
|----------------------------------------|

   E   S  S  +S  S  E   S  E   S S S S S
|------------------------------------8---|
|-10-----10-(10)---10-----10-----8-------|
|----------------------------------------|
|----------------------------------------|
|----------------------------------------|
|----------------------------------------|
|
|  S S S  S   S  S  S S S  S S S S S S S
|----------------------------------------|
|-------------0---------1--------3---1---|
|--0---0------------0--------0-----------|
|----------------------------------------|
|----------------------------------------|
|----------------------------------------|

   E   S  S  +S  S  S S  S  S S  S  S S E
|-------------------------------------------|
|-10-----10-(10)---10---10-10---10-10-------|
|-------------------------------------------|
|-------------------------------------------|
|-------------------------------------------|
|-------------------------------------------|
|
|  S S S  S   S  S  S S  S  S S  S  S S S S
|-------------------------------------------|
|------------------------1----------1---0---|
|-------------2-----------------------------|
|--3---3------------3---------3-------------|
|-------------------------------------------|
|-------------------------------------------|

   E   S  S  +S  S  E   S  E   S S S S S
|------------------------------------8---|
|-10-----10-(10)---10-----10-----8-------|
|----------------------------------------|
|----------------------------------------|
|----------------------------------------|
|----------------------------------------|
|
|  S S S  S   S  S  S S S  S S S S S S S
|----------------------------------------|
|-------------1---------3--------5---3---|
|--2---2------------2--------2-----------|
|----------------------------------------|
|----------------------------------------|
|----------------------------------------|

   E   S  S  +S  S  E   S  E   S S S S S
|----------------------------------------|
|-10-----10-(10)---10-----10-----8-------|
|------------------------------------9---|
|----------------------------------------|
|----------------------------------------|
|----------------------------------------|
|
|  S S S  S   S  S  S S S  S S S S S S S
|-------------0---------3--------0-------|
|--1---1------------1--------1-------1---|
|----------------------------------------|
|----------------------------------------|
|----------------------------------------|
|----------------------------------------|

   E   S  S  +S  S  E   S  E   S S S S S
|------------------------------------8---|
|-10-----10-(10)---10-----10-----8-------|
|----------------------------------------|
|----------------------------------------|
|----------------------------------------|
|----------------------------------------|
|
|  S S S  S   S  S  S S S  S S S S S S S
|----------------------------------------|
|-------------0---------1--------3---1---|
|--0---0------------0--------0-----------|
|----------------------------------------|
|----------------------------------------|
|----------------------------------------|

   E   S  S  +S  S  S S  S  S S  S  S S E
|-------------------------------------------|
|-10-----10-(10)---10---10-10---10-10-------|
|-------------------------------------------|
|-------------------------------------------|
|-------------------------------------------|
|-------------------------------------------|
|
|  S S S  S   S  S  S S  S  S S  S  S S S S
|-------------------------------------------|
|------------------------1----------1---0---|
|-------------2-----------------------------|
|--3---3------------3---------3-------------|
|-------------------------------------------|
|-------------------------------------------|

   S  S S  S S S  S  S S  S S S  S  S  S S
|----12------8--------------8--------------|
|-10------10-----10-11---10-----10-11------|
|-------------------------------------12---|
|------------------------------------------|
|------------------------------------------|
|------------------------------------------|

   S  S S  S S S  S  S S  S S S  S  S  S S
|----12------8--------------8--------------|
|-10------10-----10-11---10-----10-11------|
|-------------------------------------12---|
|------------------------------------------|
|------------------------------------------|
|------------------------------------------|

   S  S S  S S S  S  S S  S S S  S  S  S S
|----12------8--------------8--------------|
|-10------10-----10-11---10-----10-11------|
|-------------------------------------12---|
|------------------------------------------|
|------------------------------------------|
|------------------------------------------|

   S  S S  S S S S S S S  S S  S S E
|----12------8-----------------------|
|-10------10-----8-8---8-10---10-----|
|------------------------------------|
|------------------------------------|
|------------------------------------|
|------------------------------------|

   S  S S  S S S  S  S S  S S S  S  S  S S
|----12------8--------------8--------------|
|-10------10-----10-11---10-----10-11------|
|-------------------------------------12---|
|------------------------------------------|
|------------------------------------------|
|------------------------------------------|

   S  S S  S S S  S  S S  S S S  S  S  S S
|----12------8--------------8--------------|
|-10------10-----10-11---10-----10-11------|
|-------------------------------------12---|
|------------------------------------------|
|------------------------------------------|
|------------------------------------------|

   S  S S  S S S  S  S S  S S S  S  S  S S
|----12------8--------------8--------------|
|-10------10-----10-11---10-----10-11------|
|-------------------------------------12---|
|------------------------------------------|
|------------------------------------------|
|------------------------------------------|

   S  S S  S S S S S S S  S S  S S E
|----12------8-----------------------|
|-10------10-----8-8---8-10---10-----|
|------------------------------------|
|------------------------------------|
|------------------------------------|
|------------------------------------|

                                       Gtr II
   S  S S  S S S S S S S  S S  S S E   S S S S S S S S S S S S S S S S
|----12------8-----------------------|---------------------------------|
|-10------10-----8-8---8-10---10-----|---------1-------3-------5---3---|
|------------------------------------|-2---2-------2-------2-----------|
|------------------------------------|---------------------------------|
|------------------------------------|---------------------------------|
|------------------------------------|---------------------------------|

  S S S S S S S S S S S S S S S S   S S S S S S S S S S S S S S S S
|---------0-------3-------0-------|---------------------------------|
|-1---1-------1-------1-------1---|---------0-------1-------3---1---|
|---------------------------------|-0---0-------0-------0-----------|
|---------------------------------|---------------------------------|
|---------------------------------|---------------------------------|
|---------------------------------|---------------------------------|

  S S S S S S S S S S S S S S S S   S S S S S S S S S S S S S S S S
|---------------------------------|---------------------------------|
|-----------------1-------1---0---|---------1-------3-------5---3---|
|---------2-----------------------|-2---2-------2-------2-----------|
|-3---3-------3-------3-----------|---------------------------------|
|---------------------------------|---------------------------------|
|---------------------------------|---------------------------------|

  S S S S S S S S S S S S S S S S   S S S S S S S S S S S S S S S S
|---------0-------3-------0-------|---------------------------------|
|-1---1-------1-------1-------1---|---------0-------1-------3---1---|
|---------------------------------|-0---0-------0-------0-----------|
|---------------------------------|---------------------------------|
|---------------------------------|---------------------------------|
|---------------------------------|---------------------------------|

  s S s S s S s S s S s S s S s S
|---------------------------------*|
|-----------------1-------1---0---*|
|---------2-----------------------*|
|-3---3-------3-------3-----------*|
|---------------------------------*|
|---------------------------------*|
Login or Register to remove this ad.

17 comments on Main Movie Theme

Great tab! :D

Great tab! :D

Thank you ^^

Thank you ^^

omg! your really good at

omg! your really good at tabbing i know that i never could have done that. Ima be lucky if i can play that

Yeah I just sat down and

Yeah I just sat down and played through it. It's really good.

well.... glad u guys like it

well.... glad u guys like it ^^

A real treat!

A real treat!

Love it and I'm deff going

Love it and I'm deff going to practice this one!!

sweet i love MK!

sweet i love MK!

Very nice, definite 5 star

Very nice, definite 5 star

THats fuckin Krazy i thought

THats fuckin Krazy i thought no Mortal could pull it off...
srry for bad pun

This is So WIERD! I actualy

This is So WIERD! I actualy figured out the begining to this song a long time ago and it's exactly the same! The only difference is I play the very begining like this:

e-------------------------0-------
B---------1-------3-----------3---
G-2---2-------2-------2-----------
D---------------------------------
A---------------------------------
E---------------------------------

Intro E---------------------

Intro

E------------------------------------------------------
B------------------------------------------------------
G---------------------2---5---2------------------------
D-0-0-3-0-5-0-7-5-3-3---3---3---3-----2---5---2-------0
A---------------------------------3-3---3---3---3-1-1--
E------------------------------------------------------


E-----------------------------------------------------
B-----------------------------------------------------
G-----------------------------------------------------
D---3---0---------------------------------------------
A-1---1---1--------------------------------------------
E-----------------------------------------------------

Then

E-------------------------------------------------------
B-5-5-5-5--3-7--5-5-5-5--3-0--5-5-5-5--3-7--5-5-5-5555--
G-7-7-7-7--5-9--5-5-5-5--5-2--7-7-7-7--5-9--7-7-7-7777--
D-7-7-7-7--5-9--7-7-7-7--5-2--7-7-7-7--5-9--7-7-7-7777--
A-------------------------------------------------------
E-------------------------------------------------------

the rest idk,
but i like this one better
just my 2 cents.

agreed with Yoshi... but

agreed with Yoshi...

but yoshi is playing it in Dm

play it in a deeper octave... it sounds way better

Is yoshi japanese?

3

Is yoshi japanese?

this is probably the worst

1

this is probably the worst tab ever created

THAT IS AWESOME!!!!!!!!!

THAT IS AWESOME!!!!!!!!!

you said it! it is awesome!

you said it! it is awesome!