In the Wind (Gradius III) Guitar Tab

Submitted: Sep 28, 2008 by auriplane (Last updated: May 25, 2012)

0
Download | Listen
Game: Gradius III
Composer(s): Club Kukeiha
Style: 2 or more instruments, Transcription

AutoScroll: Slow | Medium | Fast
           Gradius III (SNES) - Stage III "Deja Vu" GUITAR TAB
                      Song by Kukeiha Club (KONAMI)

                 Tabbed by auriplane ([email protected])


My first guitar tab for Gametabs! :-D  

I arranged this a little bit, so that you can play the important
parts with one guitar.  I also tabbed a bass part which goes with
it, which should be on Gametabs as well.

At the end I included a two-guitar version, which is almost the
same, but splits up the chords and lead in Part A.


                           ONE GUITAR VERSION

    Part A

E |----------------|----------------|----------------|----------------|
B |----------------|----------------|----------------|----------------|
G |7-----6---------|4-----6---------|--7-----6---6---|4-----6---------|
D |9-----7---------|5-----7---------|--9-----7---7---|5-----7---------|
A |----------------|----------------|----------------|----------------|
E |----------------|----------------|----------------|----------------|

E |----------------|----------------|----------------|--------------17|
B |----------------|----------------|----------------|----------1415--|
G |11----9---------|7-----9---------|--11----9---9---|----------------|
D |12----11--------|9-----11--------|--12----11--11--|12----14--------|
A |----------------|----------------|----------------|14----16--------|
E |----------------|----------------|----------------|----------------|

    Part B

E |----------------|----------------|--15----14--12--|10----101214----|
B |----------------|----------------|----------------|----------------|
G |----------------|----------------|----------------|------------14--|
D |----------------|----------------|----------------|----------------|
A |----------------|----------------|----------------|----------------|
E |----------------|----------------|----------------|----------------|

E |----------------|----------------|----------------|--------------17|
B |----------------|----------------|----------------|----------1415--|
G |11----9---------|7-----9---------|--11----9---9---|----------------|
D |12----11--------|9-----11--------|--12----11--11--|12----14--------|
A |----------------|----------------|----------------|14----16--------|
E |----------------|----------------|----------------|----------------|

    Part C

E |----------------|----------------|--15----14--12--|10----1012--14--|
B |----------------|----------------|----------------|----------------|
G |----------------|----------------|----------------|----------------|
D |----------------|----------------|----------------|----------------|
A |----------------|----------------|----------------|----------------|
E |----------------|----------------|----------------|----------------|

E |----------------|----------------|----------------|----------------|
B |----------------|----------------|----------------|10----12----14--|
G |11----9---------|7-----9---------|9-----11----12--|11----12----14--|
D |12----11--------|9-----11--------|11----12----14--|----------------|
A |----------------|----------------|----------------|----------------|
E |----------------|----------------|----------------|----------------|

    Part D

E |----------------|----------------|----------------|----------------|
B |15----14--15----|----------------|----------------|----------------|
G |16----14--16--14|------14--12--11|----11----7-9-11|9-----9---111214|
D |--------------16|----16----14--12|----12----9-1112|11--11----------|
A |----------------|----------------|----------------|----------------|
E |----------------|----------------|----------------|----------------|

E |----------------|----------------|141514----14--12|----------------|
B |15----14--15----|--------15--17--|------15--12--10|----------------|
G |16----14--16--14|--------14--14--|------12--------|----------------|
D |--------------16|----------------|----------------|----------------|
A |----------------|----------------|----------------|----------------|
E |----------------|----------------|----------------|----------------|

    Part E

E |----------------|----------------|----------------|----------------|
B |15----14--15----|----------------|----------------|----------------|
G |16----14--16--14|------14--12--11|----11----7-9-11|9-----9---111214|
D |--------------16|----16----14--12|----12----9-1112|11--11----------|
A |----------------|----------------|----------------|----------------|
E |----------------|----------------|----------------|----------------|

E |----------------|----------------|15----14----17--|----------------|
B |15----14--15----|--------15--17--|15--1515--1517--|----------------|
G |16----14--16--14|--------14--14--|----------------|----------------|
D |--------------16|----------------|----------------|----------------|
A |----------------|----------------|----------------|----------------|
E |----------------|----------------|----------------|----------------|


                            TWO GUITAR VERSION


First guitar:

    Part A

E |------|------|-------|------|-------|------|------|--------------17|
B |-----(                                      )-----|----------1415--|
G |-----(       Rest for seven measures        )-----|----------------|
D |-----(                                      )-----|----------------|
A |------|------|-------|------|-------|------|------|----------------|
E |------|------|-------|------|-------|------|------|----------------|
   
    Part B

E |----------------|----------------|--15----14--12--|10----101214----|
B |----------------|----------------|----------------|------------10--|
G |----------------|----------------|----------------|----------------|
D |----------------|----------------|----------------|----------------|
A |----------------|----------------|----------------|----------------|
E |----------------|----------------|----------------|----------------|

E |----------------|----------------|----------------|--------------17|
B |----------------|----------------|----------------|----------1415--|
G |----------------|----------------|----------------|----------------|
D |----------------|----------------|----------------|----------------|
A |----------------|----------------|----------------|----------------|
E |----------------|----------------|----------------|----------------|

    Part C

E |----------------|----------------|--15----14--12--|10----1012--14--|
B |----------------|----------------|----------------|----------------|
G |----------------|----------------|----------------|----------------|
D |----------------|----------------|----------------|----------------|
A |----------------|----------------|----------------|----------------|
E |----------------|----------------|----------------|----------------|



Second guitar:

    Part A & B

E |----------------|----------------|----------------|----------------|
B |----------------|----------------|----------------|----------------|
G |7-----6---------|4-----6---------|--7-----6---6---|4-----6---------|
D |9-----7---------|5-----7---------|--9-----7---7---|5-----7---------|
A |----------------|----------------|----------------|----------------|
E |----------------|----------------|----------------|----------------|

E |----------------|----------------|----------------|----------------|
B |----------------|----------------|----------------|----------------|
G |11----9---------|7-----9---------|--11----9---9---|7-----9---------|
D |12----11--------|9-----11--------|--12----11--11--|9-----11--------|
A |----------------|----------------|----------------|----------------|
E |----------------|----------------|----------------|----------------|

    Part C

E |----------------|----------------|----------------|----------------|
B |----------------|----------------|----------------|----------------|
G |7-----6---------|4-----6---------|--7-----6---6---|4-----6---------|
D |9-----7---------|5-----7---------|--9-----7---7---|5-----7---------|
A |----------------|----------------|----------------|----------------|
E |----------------|----------------|----------------|----------------|

E |----------------|----------------|----------------|----------------|
B |----------------|----------------|----------------|10----12----14--|
G |11----9---------|7-----9---------|9-----11----12--|11----12----14--|
D |12----11--------|9-----11--------|11----12----14--|----------------|
A |----------------|----------------|----------------|----------------|
E |----------------|----------------|----------------|----------------|

    Part D

E |----------------|----------------|----------------|----------------|
B |15----14--15----|----------------|----------------|----------------|
G |16----14--16--14|------14--12--11|----11----7-9-11|9-----9---111214|
D |--------------16|----16----14--12|----12----9-1112|11--11----------|
A |----------------|----------------|----------------|----------------|
E |----------------|----------------|----------------|----------------|

E |----------------|----------------|141514----14--12|----------------|
B |15----14--15----|--------15--17--|------15--12--10|----------------|
G |16----14--16--14|--------14--14--|------12--------|----------------|
D |--------------16|----------------|----------------|----------------|
A |----------------|----------------|----------------|----------------|
E |----------------|----------------|----------------|----------------|

    Part E

E |----------------|----------------|----------------|----------------|
B |15----14--15----|----------------|----------------|----------------|
G |16----14--16--14|------14--12--11|----11----7-9-11|9-----9---111214|
D |--------------16|----16----14--12|----12----9-1112|11--11----------|
A |----------------|----------------|----------------|----------------|
E |----------------|----------------|----------------|----------------|

E |----------------|----------------|15----14----17--|----------------|
B |15----14--15----|--------15--17--|15--1515--1517--|----------------|
G |16----14--16--14|--------14--14--|----------------|----------------|
D |--------------16|----------------|----------------|----------------|
A |----------------|----------------|----------------|----------------|
E |----------------|----------------|----------------|----------------|
Login or Register to remove this ad.

2 comments on In the Wind

Actually the song's called

Actually the song's called "In the Wind" :D

Oh really? Do you have an

Oh really? Do you have an official soundtrack or something?