Start Theme (Galaga) Guitar Tab

Submitted: Oct 10, 2007 by Kotex (Last updated: Apr 02, 2010)

5
Average: 5 (2 votes)
Download | Listen
Game: Galaga
Composer(s): Nobuyuki Ohnogi
Style: 2 or more instruments, Transcription

AutoScroll: Slow | Medium | Fast
Galaga Theme
Atari 7800 (1981)
Tabbed by: Kotex
Difficulty: Easy
10/7/07






Guitar I
     E.  S E.  S    E.  S E.  S    E.  S E.  S    E.  S E.  S    E.  S E.  S  
E||------------1-|--0---------5-|--3---------1-|--0-----3---7-|--8---6-4---3-|
B||------1-3-----|------1-3-----|--------3-----|------1-------|--------------|
G||--0-----------|--------------|------5-------|--------------|--------------|
D||--------------|--------------|--------------|--------------|--------------|
A||--------------|--------------|--------------|--------------|--------------|
E||--------------|--------------|--------------|--------------|--------------|


                                |--3--|  |--3--|                
  E.  S E.  S    E.  S E.  S    E  E  E  E  E  E     H          
--1-----------|--6---8-6-----|--5-----------0-----|-----------||
------4-3-----|------------8-|-----6-----8--------|-----------||
------------3-|--------------|--------7--------7--|-----------||
--------------|--------------|--------------------|-----------||
--------------|--------------|--------------------|-----------||
--------------|--------------|--------------------|-----------||


Guitar II


Guitar II
     E.  S E.  S    E.  S E.  S    E.  S E.  S    E.  S E.  S    E.  S E.  S  
E||--0-----------|--------------|--0-----------|------------3-|--4---3-1-----|
B||--------3-----|--1---------0-|--------3-----|--1-----3-----|------------4-|
G||------0-----2-|------0-2-----|------0-----2-|------0-------|--------------|
D||--------------|--------------|--------------|--------------|--------------|
A||--------------|--------------|--------------|--------------|--------------|
E||--------------|--------------|--------------|--------------|--------------|


                                |--3--|  |--3--|                
  E.  S E.  S    E.  S E.  S    E  E  E  E  E  E     H          
--------------|------1-------|--1-----------------|-----------||
--3---1-----3-|--4-----4---1-|-----3-----3--0-----|-----------||
--------3-----|--------------|--------2--------2--|-----------||
--------------|--------------|--------------------|-----------||
--------------|--------------|--------------------|-----------||
--------------|--------------|--------------------|-----------||

Guitar III

     Q    E.  S    Q    Q       Q    E.  S    Q    Q       Q    E.  S  
E||-------------|------------|-----------1-|--0---------|-------------|
B||-----------1-|--0---------|--1----3-----|-------3----|--4----3---1-|
G||--0----2-----|-------0----|-------------|------------|-------------|
D||-------------|------------|-------------|------------|-------------|
A||-------------|------------|-------------|------------|-------------|
E||-------------|------------|-------------|------------|-------------|


                                  |--3--|                
  Q    Q       Q    E.  S    Q    E  E  E     H          
------------|--6----3-----|-------3--3--0--|-----------||
-------4----|-----------4-|--3-------------|-----------||
--3---------|-------------|----------------|-----------||
------------|-------------|----------------|-----------||
------------|-------------|----------------|-----------||
------------|-------------|----------------|-----------||




Duration Legend
---------------
W - whole
H - half
Q - quarter
E - 8th
S - 16th
T - 32nd
X - 64th
. - note dotted
|-n-|  - n-tuplets
Login or Register to remove this ad.