Frogger - Intro (Frogger) Guitar Tab

Submitted: Mar 08, 2009 by nozzie (Last updated: Jan 15, 2010)

5
Average: 5 (5 votes)
Download | Listen
Game: Frogger
Composer(s): Unknown
Style: Transcription

AutoScroll: Slow | Medium | Fast
 Track 1
     E  E  E  E  E  E  E  E   
E||--------------------------|
B||--0-----------0-----------|
G||-----0--0--0-----0--0--0--|
D||--------------------------|
A||--------------------------|
E||--------------------------|


  E  E  E  E  H         
-----------------------|
--1--1--0--0-----------|
--------------2--------|
-----------------------|
-----------------------|
-----------------------|


  E  E  E  E  Q    E  E     E  E  E  E   
-------------------0-----|--------------|
--1--1--0--0----------3--|--1--0--------|
--------------2----------|--------2--0--|
-------------------------|--------------|
-------------------------|--------------|
-------------------------|--------------|
Login or Register to remove this ad.

3 comments on Frogger - Intro

Frogger!!!!!!!!!!!!!

5

Frogger!!!!!!!!!!!!!

lol thanks this was all by

lol thanks this was all by ear too

lol

5

Awesome, frogger :D