Urban Freeway (Aquapazza: Aquaplus Dream Match) Guitar Tab

Submitted: Jan 11, 2018 by Ramza

5
Average: 5 (1 vote)
Download | Listen
Game: Aquapazza: Aquaplus Dream Match
Composer(s): Junya Matsuoka, Shinya Ishikawa, Michio Kinugasa
Style: Transcription

AutoScroll: Slow | Medium | Fast
AquaPazza
Urban Freeway
Composed by Junya Matsuoka, Shinya Ishikawa, Michio Kinugasa
Date: 10/01/2018
Key: G
Tuning: Standard


e--------------------------------------------------------------13----------------------------
B-----13--15-------13--15~-------13-------------------13--15~------13~--15--11~--10----------
G--15----------15------------15------15--14--15~---15---------------------------------10--12~
D--------------------------------------------------------------------------------------------
A--------------------------------------------------------------------------------------------
E--------------------------------------------------------------------------------------------

e--15------13--15-------13------13--15~---------13--15~---18--17--15--13--13--15--15~
B------15-----------15------15--------------15---------------------------------------
G------------------------------------------------------------------------------------
D------------------------------------------------------------------------------------
A------------------------------------------------------------------------------------
E------------------------------------------------------------------------------------


next part

e--13----13------13------13------13------15------------13--15~---18--17--15--13------13------15-----
B------------15------15------15------15------15~---15----------------------------15------15------15~
G---------------------------------------------------------------------------------------------------
D---------------------------------------------------------------------------------------------------
A---------------------------------------------------------------------------------------------------
E---------------------------------------------------------------------------------------------------

e--13----13------13------13------13------13--15~---------------13--15~---18--20--18--17--15~
B------------15------15------15------15--------------------15-------------------------------
G-------------------------------------------------------------------------------------------
D-------------------------------------------------------------------------------------------
A-------------------------------------------------------------------------------------------
E-------------------------------------------------------------------------------------------


non guitar cool part

e---------------------------------------------------------------------
B----------------18---------------------------------------------------
G--17--19~---19------17~----19--17--15~--------15--17--19--17--15--15~
D-----------------------------------------17--------------------------
A---------------------------------------------------------------------
E---------------------------------------------------------------------

e---------------------------------------------------------------------
B--20~---20--18----------------------------------------18------18-----
G----------------19--15~-------15--17--17--15--17--19------19------19~
D--------------------------17-----------------------------------------
A---------------------------------------------------------------------
E---------------------------------------------------------------------


chorus

e--15~----13------13--15~---15--17--18--17--20--18--17--17--15--15~
B-------------15---------------------------------------------------
G------------------------------------------------------------------
D------------------------------------------------------------------
A------------------------------------------------------------------
E------------------------------------------------------------------

e--15~--18--15--18--15~----15--18--21--20--18--20--18--13--15--15~----13--15~
B----------------------------------------------------------------------------
G----------------------------------------------------------------------------
D----------------------------------------------------------------------------
A----------------------------------------------------------------------------
E----------------------------------------------------------------------------

e--L~----13------13--15~---15--17--18--17--20--18--17--17--15--15~
B------------15---------------------------------------------------
G-----------------------------------------------------------------
D-----------------------------------------------------------------
A-----------------------------------------------------------------
E-----------------------------------------------------------------

e--15~--18--15--18--15~----15--18--21--20--18--20--18--13--15--18--15~
B---------------------------------------------------------------------
G---------------------------------------------------------------------
D---------------------------------------------------------------------
A---------------------------------------------------------------------
E---------------------------------------------------------------------

Login or Register to remove this ad.

1 comment on Urban Freeway

Random people stoped to see

5

Random people stoped to see from where the music was coming, awesome song