Login or Register to remove this ad.

Troupe Gramarye (Apollo Justice: Ace Attorney) Guitar Tab

Submitted: Sep 06, 2009 by GodotD

5
Average: 5 (1 vote)
Download | Listen
Game: Apollo Justice: Ace Attorney
Composer(s): Toshihiko Horiyama, Hideki Okugawa
Style: Transcription
Series: Phoenix Wright

AutoScroll: Slow | Medium | Fast
Troupe Gramarye
Apollo Justice: Ace Attorney
Composer: Toshihiko Horiyama
Tabber: GodotD
09/06/09

e ---4--------4--------4--------4--------------------------------------
b ------5--------5--------5--------5--------------7---7-9-10-9p7-9-----
g ---------6--------6--------6--------6-------8-9---9------------------
D ---------------------------------------------------------------------
A ---------------------------------------------------------------------
E ---------------------------------------------------------------------

e ---4--------4--------5--------5--------9-11-9---------------12-------
b ------5--------5--------5--------5------------12-10-12-10-9----------
g ---------6--------6--------6--------6--------------------------------
D ---------------------------------------------------------------------
A ---------------------------------------------------------------------
E ---------------------------------------------------------------------

e ---4--------4--------4--------4--------------------------------------
b ------5--------5--------5--------5--------------7---7-9-10-9p7-9-----
g ---------6--------6--------6--------6-------8-9---9------------------
D ---------------------------------------------------------------------
A ---------------------------------------------------------------------
E ---------------------------------------------------------------------

e ---4--------4--------5--------5--------9-11-9----------8-9-----------
b ------5--------5--------5--------5------------12-10-12---------------
g ---------6--------6--------6--------6--------------------------------
D ---------------------------------------------------------------------
A ---------------------------------------------------------------------
E ---------------------------------------------------------------------

e ---------------------------------------------------------------------
b --10-12-10-12-10-12-10-8-7-8-7-8-7-8-10-12-12-13-12-13-12-13-15-13-12
g ---------------------------------------------------------------------
D ---------------------------------------------------------------------
A ---------------------------------------------------------------------
E ---------------------------------------------------------------------

e ----------------10-12p10---------------------------------------------
b --12p10-8h10-12----------14-12----12-14-15p14-12---------------------
g -------------------------------14----------------14-12-14------------
D ---------------------------------------------------------------------
A ---------------------------------------------------------------------
E ---------------------------------------------------------------------

e ---------------------------------------------------------------------
b --13--13-13---13-15--1515151515151515--------------------------------
g ---------------------------------------------------------------------
D ---------------------------------------------------------------------
A ---------------------------------------------------------------------
E ---------------------------------------------------------------------
Login or Register to remove this ad.