Ads

Misaki Mei Theme (Another) Guitar Tab

Submitted: Nov 29, 2013 by corntastic (Last updated: Sep 07, 2014)

3.666665
Average: 3.7 (3 votes)
Download | Listen
Game: Another
Composer(s): Kow Otani
Style: Arrangement, Fingerstyle

This song is also called Track 06

AutoScroll: Slow | Medium | Fast
Misaki Mei Theme
Another
Kow Otani
Originally transcribed by Moises Torres
Arranged by corntastic


Gtr I (D A D G B E) 
  Q=60
 3/4
  Gtr I
  W        W          E E Q  E E   E E Q  E E   E E Q  E E   Q  H
|--------|----------|------------|------------|------------|---------|
|--------|----------|------------|------------|------------|---------|
|--------|----------|-3-3-3----3-|-3-3-3----3-|-3-2-2----0-|-0-------|
|--------|----------|------------|------------|------------|----4----|
|--------|----------|------------|------------|------------|---------|
|--------|----------|------------|------------|------------|---------|



  E E E E E E   Q  Q  Q    E E E E E E   Q  Q  Q    E E Q  E E   E E Q  E E
|-------------|----------|-------------|----------|------------|------------|
|-4-3-1-------|----------|-3-1---------|----------|------------|------------|
|-------3-2-3-|-2--------|-----3-2-0---|-0--------|-3-3-3----3-|-3-3-3----3-|
|-------------|----------|-----------4-|----------|------------|------------|
|-------------|----------|-------------|----------|------------|------------|
|-------------|----------|-------------|----------|------------|------------|


                            
  E E Q  E E   Q  Q  Q    E E E E E E   H    Q    E E E E E E   H    Q
|------------|-------2--|-2-1-0-------|---------|-2-1-0-------|---------|
|------------|----------|-------4-3-2-|-1-------|-------4-3-2-|-1-------|
|-3-2-2----0-|-0--------|-------------|---------|-------------|---------|
|------------|----4-----|-------------|---------|-------------|---------|
|------------|----------|-------------|---------|-------------|---------|
|------------|----------|-------------|---------|-------------|---------|


                                        
  E E E E Q    E E E E Q    E E E E Q    Q  Q  Q    E E E E Q    E E E E Q
|------------|------------|------------|-1--------|------------|------------|
|------------|-2-1-2-1-2--|-4-2-1------|----------|------------|-2-1-2-1-2--|
|-3-2-3-2-3--|------------|-------3-2--|----------|-3-2-3-2-3--|------------|
|------------|------------|------------|----------|------------|------------|
|------------|------------|------------|----------|------------|------------|
|------------|------------|------------|----------|------------|------------|


  
  E E E E E E   Q  Q  Q    E E E E E E   Q  Q  E E   E E E E E E   Q  Q  Q
|-1-0-1-0-----|----------|-----5-------|-5-----5---|-----5-------|-6--5--3--|
|---------3-2-|-3--3--3--|-3-------3---|----3------|-3-------3---|----------|
|-------------|----------|-------------|-----------|---0-2-------|----------|
|-------------|----------|-3-2-0-------|-----------|-3-----3-2-0-|----------|
|-------------|----------|-------3-1-0-|----0--1---|-------------|-4--------|
|-------------|----------|-3-----------|-5---------|-------------|----------|


  E E E E E E   Q  Q  Q    E E E E E E   Q  Q  Q    Q  Q  Q    Q  Q  Q
|-----5-------|-5-----5--|-----5-------|-6--5--3--|-5--5--5--|-5--3-----|
|-3-------3---|----3-----|-3-------3---|----------|----------|----------|
|-------------|----------|---0-2-------|----------|-7--------|-7--5-----|
|-3-2-0-------|----------|-3-----3-2-0-|----------|----------|----------|
|-------4-1-0-|----0--1--|-------------|-4--------|----------|----------|
|-------------|-5--------|-------------|----------|----------|----------|


                           
  Q  Q  Q    Q  Q  Q    Q  Q  Q    Q  Q  Q    H    Q    H.
|-1--1--1--|-1--0-----|-1--0-----|----------|-1----1--|-1-----||
|----------|----------|-3--1--3--|-6--5--3--|-3----3--|-3-----||
|-3--------|-3--2-----|-------3--|-7--5--3--|---------|-------||
|----------|----------|-0--------|-7--5--3--|-0----0--|-0-----||
|----------|----------|----------|-0--------|---------|-------||
|----------|----------|-0--------|----5--3--|-0----0--|-0-----||
Login or Register to remove this ad.