Kyoumu Densen (Another) Guitar Tab

Submitted: Nov 13, 2013 by corntastic

3.333335
Average: 3.3 (3 votes)
Download | Listen
Game: Another
Composer(s): Kow Otani
Style: Transcription

This song is also called Nightmare Contagion

AutoScroll: Slow | Medium | Fast
Kyoumu Densen
Another
Kow Otani, Ali Project
corntastic
10 11 2013


e-------------------------------------------------------------------------
B------------------8------------------9-----------------------------------
G--11--10--8----8-------10-8-7----7-8------10-9-10------------------------
D-------------------------------------------------------------------------
A-------------------------------------------------------------------------
E-------------------------------------------------------------------------

e---------10--8------8----------------------------------------------------
B-----8-9--------12-----8-------------------------------------------------
G--10---------------------------------------------------------------------
D-------------------------------------------------------------------------
A-------------------------------------------------------------------------
E-------------------------------------------------------------------------

e-------------------------------------------------------------------------
B-------------------8------------------9----------------------------------
G--11--10--8----8-8------10-8-7----7-8------10-9-10-----------------------
D-------------------------------------------------------------------------
A-------------------------------------------------------------------------
E-------------------------------------------------------------------------

e-----------------10-13-11-10-11------------------------------------------
B-----------12-13---------------------------------------------------------
G--10-11-13---------------------------------------------------------------
D-------------------------------------------------------------------------
A-------------------------------------------------------------------------
E-------------------------------------------------------------------------

______________________________________________________________________________________


e--7s9--9-10-8------------------------------------------------------------
B---------------12--12--10------------------------------------------------
G---------------------------11--------------------------------------------
D-------------------------------12--11------------------------------------
A-------------------------------------------------------------------------
E-------------------------------------------------------------------------

e-------------------------------------------------------------------------
B------------9------------------------------------------------------------
G--11--11------11-----11--8----9Ls11----11-9------------------------------
D-----------------11--------------------------12--12g11--11---------------
A-------------------------------------------------------------------------
E-------------------------------------------------------------------------

e--7s9--9-10-8------------------------------------------------------------
B---------------12--12--10------------------------------------------------
G---------------------------11--------------------------------------------
D-------------------------------12--11------------------------------------
A-------------------------------------------------------------------------
E-------------------------------------------------------------------------

e-------------------------------------------------------------------------
B------------9---------------------10----9--------------------------------
G--11--11------11-----11--8----11-------------11--11--9-------------------
D-----------------11------------------------------------11----------------
A-------------------------------------------------------------------------
E-------------------------------------------------------------------------

______________________________________________________________________________________


e-------------------------------------------------------------------------
B-------------------------------------------------------------------------
G-------------------------------------------------------------------------
D--11--12--12--9--11--12--9--9--11--12--9--9--11--------------------------
A-------------------------------------------------------------------------
E-------------------------------------------------------------------------

e-------------------------------------------------------------------------
B-------------------------------------------------------------------------
G-----------------------------10------------------------------------------
D--11--12--12--9--11--12--12------11--12--9--9--11------------------------
A-------------------------------------------------------------------------
E-------------------------------------------------------------------------

e-------------------------------------------------------------------------
B------------9------------------------------------------------------------
G------11-------10----8---------8-----------------------------------------
D--11--------------------11--9-----9----11--------------------------------
A-------------------------------------------------------------------------
E-------------------------------------------------------------------------

e-------------------------------------------------------------------------
B--7--9--11----9--7--9--11--7----9----------------------------------------
G-------------------------------------------------------------------------
D-------------------------------------------------------------------------
A-------------------------------------------------------------------------
E-------------------------------------------------------------------------

______________________________________________________________________________________


e-------------------------------------------------------------------------
B------------------8------------------9-----------------------------------
G--11--10--8----8-------10-8-7----7-8------10-9-10------------------------
D-------------------------------------------------------------------------
A-------------------------------------------------------------------------
E-------------------------------------------------------------------------

e---------10--8------8----------------------------------------------------
B-----8-9--------12-----8-------------------------------------------------
G--10---------------------------------------------------------------------
D-------------------------------------------------------------------------
A-------------------------------------------------------------------------
E-------------------------------------------------------------------------

e-------------------------------------------------------------------------
B-------------------8------------------9----------------------------------
G--11--10--8----8-8------10-8-7----7-8------10-9-10-----------------------
D-------------------------------------------------------------------------
A-------------------------------------------------------------------------
E-------------------------------------------------------------------------

e-----------------10-13-11-10-11------------------------------------------
B-----------12-13---------------------------------------------------------
G--10-11-13---------------------------------------------------------------
D-------------------------------------------------------------------------
A-------------------------------------------------------------------------
E-------------------------------------------------------------------------

______________________________________________________________________________________


e-----------------------8-------------------------------------------------
B----------------8---------11-9--8----------------------------------------
G---------8--10---------------------10------------------------------------
D--10--11-----------------------------------------------------------------
A-------------------------------------------------------------------------
E-------------------------------------------------------------------------

e------------------8-----------------------------7-10---------------------
B---------------8---------11-8---------------8-9--------------------------
G--8-----8--10--------10-------8------8--10-------------------------------
D-----10--------------------------10--------------------------------------
A-------------------------------------------------------------------------
E-------------------------------------------------------------------------

e--------------8--7-------------------------------------------------------
B-----------8--------10-8-------------------------------------------------
G--------8----------------10-7s8----7-------------------------------------
D--10------------------------------------10-------------------------------
A-------------------------------------------------------------------------
E-------------------------------------------------------------------------
Login or Register to remove this ad.

1 comment on Kyoumu Densen

Could you please do the

4

Could you please do the Misaki Mei Theme tabs please?