Anamnesis (Another) Guitar Tab

Submitted: Oct 29, 2013 by corntastic

2.4
Average: 2.4 (5 votes)
Download | Listen
Game: Another
Composer(s): Kow Otani
Style: Transcription

AutoScroll: Slow | Medium | Fast
Anamnesis
Another
myu, Annabel
corntastic
27 10 2013

e-------------------------------------------------------------------------
B------------9-----------------------------9------------------------------
G--8--6g8-------8----6--8--------9--9-9*------9----6--8-------------------
D-------------------------------------------------------------------------
A-------------------------------------------------------------------------
E-------------------------------------------------------------------------
*skip the second time
e-------------------------------------------------------------------------
B-------------9-----------------------------7--9--------------------------
G--8--6--8-------8----6--8--------9--9-9------------8---------------------
D-------------------------------------------------------------------------
A-------------------------------------------------------------------------
E-------------------------------------------------------------------------

e----------------9----------------------7---------------------------------
B--------7--9--7-------------------7--------------------------------------
G--8--9-------------------6--8--9-----9-----------------------------------
D-------------------------------------------------------------------------
A-------------------------------------------------------------------------
E-------------------------------------------------------------------------

e----------------------6--------------------------------------------------
B--------7----9--9--9-------------7--6----7-------------------------------
G--8--6------------------6------------------------------------------------
D------------------------------9*-----------------------------------------
A-------------------------------------------------------------------------
E-------------------------------------------------------------------------
*play the second time
______________________________________________________________________________________


e--------7----6--------------6--------------7----6--------------6---------
B--7--9------------7----9-------------7--9-----------------9--------------
G-----------------------------------------------------8-------------------
D-------------------------------------------------------------------------
A-------------------------------------------------------------------------
E-------------------------------------------------------------------------

e--------9--7----------6-----------5g6-------7----------------------------
B--7--9--------7--9-------7-------------7---------7--7g9------------------
G-------------------------------------------------------------------------
D-------------------------------------------------------------------------
A-------------------------------------------------------------------------
E-------------------------------------------------------------------------

e--9--9-------------------------------------------------------------------
B----------9--6--7--------------------------------------------------------
G-------------------------6--------9g11-----------------------------------
D----------------------------9--8-----------------------------------------
A-------------------------------------------------------------------------
E-------------------------------------------------------------------------
Repeat, and skip this ^ individual bar the second time


e----------------9--------------------------------------------------------
B--9b11----9--7-----9-------7--6----6-------------------------------------
G------------------------6-------------8----------------------------------
D-------------------------------------------------------------------------
A-------------------------------------------------------------------------
E-------------------------------------------------------------------------

e-------------------------------------------------------------------------
B-------------6---------7----6-----7g9----7--9----------------------------
G--8----6--------6-6------------8-----------------------------------------
D----------9--------------------------------------------------------------
A-------------------------------------------------------------------------
E-------------------------------------------------------------------------

e----------------9--------------------------------------------------------
B--9b11----9--7-----9-------7--6------7--6--------9--7--------------------
G-------------------------------------------------------------------------
D-----------------------------------8-------------------------------------
A-------------------------------------------------------------------------
E-------------------------------------------------------------------------

______________________________________________________________________________________


e--------7----6--------------6--------------7----6--------------6---------
B--7--9------------7----9-------------7--9-----------------9--------------
G-----------------------------------------------------8-------------------
D-------------------------------------------------------------------------
A-------------------------------------------------------------------------
E-------------------------------------------------------------------------

e--------9--7----------6--------------------------------------------------
B--7--9--------7--9-------7-------------7-----------9---------------------
G----------------------------------6-6-------6-6--------------------------
D-------------------------------------------------------------------------
A-------------------------------------------------------------------------
E-------------------------------------------------------------------------


e--7----6--------------6--------------7----6--------------6---------------
B------------7----9-------------7--9-----------------9--------------------
G-----------------------------------------------8-------------------------
D-------------------------------------------------------------------------
A-------------------------------------------------------------------------
E-------------------------------------------------------------------------

e--------9--7----------6-----------5g6-------7----------------------------
B--7--9--------7--9-------7-------------7---------7--7g9------------------
G-------------------------------------------------------------------------
D-------------------------------------------------------------------------
A-------------------------------------------------------------------------
E-------------------------------------------------------------------------

e--9--9-------------------------------------------------------------------
B----------9--6--7--------------------------------------------------------
G-------------------------6--------9g11-----------------------------------
D----------------------------9--8-----------------------------------------
A-------------------------------------------------------------------------
E-------------------------------------------------------------------------
Login or Register to remove this ad.