Ads

Introduction (Another World) Guitar Tab

Submitted: May 31, 2012 by hslesperance

5
Average: 5 (2 votes)
Download | Listen
Game: Another World
Composer(s): Jean-Fran├žois Freitas
Style: Transcription

AutoScroll: Slow | Medium | Fast
Introduction
Another World
Composed by Jean-Fran├žois Freitas
Tabbed by hslesperance
5/31/12

Standard Tuning


e---7------------------------------------------
B--------8----10--------8---------7------------
G----------------------------7-------------9---
D----------------------------------------------
A----------------------------------------------
E----------------------------------------------

e---7------------------------------------------
B------8---10--------8-------------------------
G-----------------------7---9------------------
D----------------------------------------------
A----------------------------------------------
E----------------------------------------------

e---7------------------------------------------
B------8---10--------8------------8--10--------
G-----------------------7---9------------------
D----------------------------------------------
A----------------------------------------------
E----------------------------------------------

e---7------------------------------------------
B------8---10--------8-------------------------
G-----------------------7---9------------------
D----------------------------------------------
A----------------------------------------------
E----------------------------------------------

e---7------------------------------------------
B------8---10--------8---------------7---------
G-----------------------7---9------------------
D----------------------------------------------
A----------------------------------------------
E----------------------------------------------

e--------------7--------12-10------7-7---------
B---8----10---------------------10-------------
G----------------------------------------------
D----------------------------------------------
A----------------------------------------------
E----------------------------------------------

e------------------------------------------7---
B---10--8--7---------7------8------10----------
G-------------9--------------------------------
D----------------------------------------------
A----------------------------------------------
E----------------------------------------------
Login or Register to remove this ad.