Ads

Ending (Another World) Bass/Guitar Tab

Submitted: May 31, 2012 by hslesperance (Last updated: Aug 10, 2012)

5
Average: 5 (1 vote)
Download | Listen
Game: Another World
Composer(s): Jean-Fran├žois Freitas
Style: 2 or more instruments, Transcription

AutoScroll: Slow | Medium | Fast
Ending
Another World
Composed by Jean-Fran├žois Freitas
Tabbed by hslesperance
5/31/12

Standard Tuning




Guitar

  W           W          W          H     H
|----------|-----------|-8--------|-7----------|
|-8--------|-10--------|----------|------10----|
|----------|-----------|----------|------------|
|----------|-----------|----------|------------|
|----------|-----------|----------|------------|
|----------|-----------|----------|------------|


  W           W          W          +H.      Q
|----------|-----------|----------|-------------|
|-8--------|-10--------|----------|-------------|
|----------|-----------|-9--------|-(9)------7--|
|----------|-----------|----------|-------------|
|----------|-----------|----------|-------------|
|----------|-----------|----------|-------------|


  H    +E  Q   E    +H      +E  Q  E   +H     +E  Q  E   +H      E Q  E
|----------7-----|--------------7--8-|-(8)----(8)-8--7-|-(7)------------|
|-8----(8)----10-|-(10)----(10)------|-----------------|--------10----8-|
|----------------|-------------------|-----------------|-----------7----|
|----------------|-------------------|-----------------|----------------|
|----------------|-------------------|-----------------|----------------|
|----------------|-------------------|-----------------|----------------|


  +H     +E  Q   E    +H     E Q  E   +E  E H.        +H     E E E  E
|------------7-----|----------------|---------------|-----------------|
|-(8)----(8)----10-|-(10)-----------|---------------|------------8-10-|
|------------------|---------9-7--7-|-(7)-9-9-------|-(9)----7-9------|
|------------------|----------------|---------------|-----------------|
|------------------|----------------|---------------|-----------------|
|------------------|----------------|---------------|-----------------|


  H    +E  Q   E    +Q   Q  E  Q  E   +H     E  Q  E   +H      E Q  E
|----------7-----|----------------8-|-(8)----7-----7-|-(7)------------|
|-8----(8)----10-|-(10)--7--8-10----|----------10----|--------10----8-|
|----------------|------------------|----------------|-----------7----|
|----------------|------------------|----------------|----------------|
|----------------|------------------|----------------|----------------|
|----------------|------------------|----------------|----------------|


  +H     +E  Q   E    +Q   Q  E Q  E   +W           +E  E E E  E E  E E
|------------7-----|-----------------|------------|--------------7------|
|-(8)----(8)----10-|-(10)--7---------|------------|---------8-10---10---|
|------------------|----------9-7--9-|-(9)--------|-(9)-7-9-----------7-|
|------------------|-----------------|------------|---------------------|
|------------------|-----------------|------------|---------------------|
|------------------|-----------------|------------|---------------------|


  Q.   Q  Q   E    +Q   Q  E  Q  E   +Q   Q   E Q.     +E  E  Q  E Q  E
|---------7-----|----------------8-|-(8)--7-----7----|-(7)-7------------|
|-8----8-----10-|-(10)--7--8-10----|---------10------|-------10--7----8-|
|---------------|------------------|-----------------|-------------7----|
|---------------|------------------|-----------------|------------------|
|---------------|------------------|-----------------|------------------|
|---------------|------------------|-----------------|------------------|


  Q.   Q  Q   E    +Q   Q  E Q  E   +E  E Q  E Q  E   +E  E E E E E E  E
|---------7-----|-----------------|-----------------|--------------------|
|-8----8-----10-|-(10)--7---------|-----8-----------|-------------7-8-10-|
|---------------|----------9-7--9-|-(9)---9--9-7--9-|-(9)-----7-9--------|
|---------------|-----------------|-----------------|-----7-9------------|
|---------------|-----------------|-----------------|--------------------|
|---------------|-----------------|-----------------|--------------------|


   H     E  E  E  E    +E   E  Q   Q   E  E
|-------------12----|-----------------------|
|-12----12-15----15-|-(15)-15-----15--12-15-|
|-------------------|---------14------------|
|-------------------|-----------------------|
|-------------------|-----------------------|
|-------------------|-----------------------|


   E  Q   Q   E  E  E    +E   E  E  E  E  E  E  E
|-12-15--12-----------|---------------------------|
|------------15-12----|---------------------------|
|------------------14-|-(14)-------12-14-12-------|
|---------------------|------12-14----------14-12-|
|---------------------|---------------------------|
|---------------------|---------------------------|


   Q.   E E E E  E    +Q   Q  Q  E E   E Q  E +H       +E   E E E E E E  E
|-------------7----|-----------------|---------------|---------------------|
|-------8---8---10-|-(10)--7---------|---------------|----------------8-10-|
|-12------9--------|----------9--7---|-9-------------|------------7-9------|
|------------------|---------------9-|---7--7-(7)----|-(7)----7-9----------|
|------------------|-----------------|---------------|-----10--------------|
|------------------|-----------------|---------------|---------------------|


  Q.   Q   E E  E    +E   E Q  E  Q  E   +E  E Q   E Q  E   +E  E  Q  E Q  E
|------------7----|------------------8-|-(8)-8-7-----7--7-|-(7)-7------------|
|-8----8--10---10-|-(10)-10-7--8-10----|----------10------|-------10--7----8-|
|-----------------|--------------------|------------------|-------------7----|
|-----------------|--------------------|------------------|------------------|
|-----------------|--------------------|------------------|------------------|
|-----------------|--------------------|------------------|------------------|


  Q  Q  E  E E  E    +Q   Q  E Q  E   +E  E Q  E Q  E   +E  E E E E E E  E
|------------7----|-----------------|-----------------|--------------------|
|-8--8--8-10---10-|-(10)--7---------|-----8-----------|---------------8-10-|
|-----------------|----------9-7--9-|-(9)---9--9-7--9-|-(9)-----7-9-7------|
|-----------------|-----------------|-----------------|-----7-9------------|
|-----------------|-----------------|-----------------|--------------------|
|-----------------|-----------------|-----------------|--------------------|


  W          +W
|----------|--------*|
|-8--------|-(8)----*|
|----------|--------*|
|----------|--------*|
|----------|--------*|
|----------|--------*|




Bass

  W          W          W          W
|----------|----------|----------|------|
|----------|----------|----------|------|
|----------|----------|----------|------|
|----------|----------|----------|------|


  W          W          W          W
|----------|----------|----------|------|
|----------|----------|----------|------|
|----------|----------|----------|------|
|----------|----------|----------|------|


     E  E  E  E  E  E  E  E    E  E  E  E  E  E  E  E
||--------12----------12----|-------------------------|
||o-------------------------|-------12----------12----|
||o-10-10----10-10-10----10-|-------------------------|
||--------------------------|-10-10----10-10-10----10-|


   E  E  E  E  E  E  E  E    E  E  E  E  E  E  E  E
|-------14----------14----|-------12-----------------|
|-------------------------|-------------------12-----|
|-12-12----12-12-12----12-|-10-10----10--------------|
|-------------------------|-------------10-10----10--|


   E  E  E  E  E  E  E  E    E  E  E  E  E  E  E  E
|-------12----------12----|-------------------------|
|-------------------------|-------12----------12----|
|-10-10----10-10-10----10-|-------------------------|
|-------------------------|-10-10----10-10-10----10-|


   E  E  E  E  E  E  E  E   E E  E E  E  E  E  E  5x
|-------14----------14----|-----------------------||
|-------------------------|-----10---------12----o||
|-12-12----12-12-12----12-|----------------------o||
|-------------------------|-8-8----8-10-10----10--||


  W          W
|----------|------*|
|----------|------*|
|----------|------*|
|----------|------*|

W - whole
H - half
Q - quarter
E - 8th
+ - note tied to previous
. - note dotted
Login or Register to remove this ad.

1 comment on Ending

Every version of this song

Every version of this song seems slightly different. I think I used the Atari ST ending.