Ads

Going Crazy Over You (Ano Hi Mita Hana no Namae o Bokutachi wa Mada Shiranai) Guitar Tab

Submitted: Oct 13, 2014 by scarecrowlol

5
Average: 5 (3 votes)
Download | Listen
Game: Ano Hi Mita Hana no Namae o Bokutachi wa Mada Shiranai
Composer(s): Remedios
Style: Arrangement, Fingerstyle

AutoScroll: Slow | Medium | Fast
Title: Going Crazy Over You
SubTitle: Ano Hi Mita Hana no Namae wo Bokutachi wa Mada Shiranai
Artist: REMEDIOS
Tabber: Mitch Jackson
Tempo = 95
T/S = 4/4

     
     E  E  Q.       E  E  E       E  E  H           Q          Q     Q     H                H           E  E  E  E
D |-----------------------7----|--------0-----------3-------|--0-------------------------|-----------------0----------|
A |--8--------------7--8-------|--7--0----------------------|--------------1-------------|--3-----------L-----3--1----|
F |--------9-------------------|----------------------------|--------0-------------------|----------------------------|
C |-----9----------------------|--0-------------------------|----------------------------|----------------------------|
G |--7-------------------------|----------------------------|--3-------------------------|----------------------------|
C |----------------------------|----------------------------|----------------------------|----------------------------|

                                                                                            ^
     E  E  Q.       E  E  E       Q     Q     Q     Q          Q     Q     Q     Q          W
  |----------------------------|----------------------------|----------------------------|--0-------------------------|
  |--3-----0--------------3----|--3-----------------1-------|----------------------------|--1-------------------------|
  |-----0--------------0-------|--------------0-------------|--2-----------------0-------|--2-------------------------|
  |-----------------0----------|--------2-------------------|--------------3-------------|--3-------------------------|
  |--2-------------------------|--0-------------------------|--------3-------------------|--3-------------------------|
  |----------------------------|----------------------------|--3-------------------------|----------------------------|

  
     E  E  E  E  E  E  Q          E  E  E  E  E  E  Q          E  E  E  E  E  E  E  E       E  E  E  Q     E  Q
  |--7-------------------------|--3-------------------------|--0-------------------------|-----------2-----2--5-------|
  |--------------------10------|--------------------6-------|--------------3-------------|--------3-------------------|
  |----------------------------|--------------5-------------|----------------------------|-----2----------------------|
  |--------7--10----7----------|--------3--7-----7----------|--------0--2--4--------0----|--4-------------------------|
  |-----7--------7-------------|-----3----------------------|-----0--------------0-------|----------------------------|
  |--7-------------------------|--3-------------------------|--0--------------0----------|----------------------------|

                                                          
     E  E  E  E  E  E  Q          E  E  E  E  Q     Q          E  E  E  E  E  E  E  E       E  E  E  E  H
  |--7--------8----------------|--3--------3--5-------------|--0--------0--2--------0----|--2--5--0--2--5-------------|
  |--------10----------10------|--------6-----------6-------|--------3-----------3-------|----------------------------|
  |-----9-----------9----------|-----5----------------------|-----2-----------2----------|----------------------------|
  |--7-----------7-------------|--3-------------------------|--0-------------------------|----------------------------|
  |----------------------------|----------------------------|----------------------------|----------------------------|
  |----------------------------|----------------------------|----------------------------|----------------------------|

                                                          
     E  E  E  E  Q     Q          E  E  E  E  Q     Q          E  E  E  E  E  E  E  E       E  E  E  E  E  E  E  E
  |--1-----------1-------------|--------------0-------------|--------------3-----0-------|--3-------------------------|
  |-----------3--3-----1-------|--0--------1----------------|-----------0-----0-----0----|--------------0-----0-------|
  |--------3-------------------|--------2-----------2-------|--0-------------------------|--------2-----2-----2-------|
  |-----3----------------------|-----2----------------------|--------2-------------------|-----2-----2-----2-----2----|
  |--1-------------------------|--0-------------------------|-----2----------------------|--0-------------------------|
  |----------------------------|----------------------------|--2-------------------------|----------------------------|

                                                          
     W                            Q     Q     Q     Q          E  E  E  E  E  E  E  E       E  E  E  E  E  E  E  E
  |--0-------------------------|--L-----------0-----5-------|--7-----------------5-------|--3-------------------------|
  |--2-------------------------|--L-------------------------|----------------------------|--------------------6-------|
  |--2-------------------------|--L-----2-------------------|-----------------5-----5----|-----------5----------------|
  |----------------------------|----------------------------|--------3--5--7-------------|-----5--7-----5--7-----7----|
  |--L-------------------------|--L-------------------------|-----3----------------------|----------------------------|
  |----------------------------|----------------------------|--3-------------------------|----------------------------|

                                                          
     E  E  E  E  E  E  E  E       E  E  E  E  E  E  E  E       E  E  E  E  Q     Q          E  E  E  E  E  E  Q
  |--0-----------2-------------|--------------------0--2----|--6-----------------5-------|--------------6-------------|
  |----------------------------|-----------3-----3----------|--------8-------------------|--8--------8--------6-------|
  |-----------------2----------|--------2-----2-------------|-----7-----7--7-------------|--------8--------8----------|
  |--------0--2--4-----2--4----|-----4----------------------|--5-------------------------|-----8----------------------|
  |-----0----------------------|--5-------------------------|----------------------------|--6-------------------------|
  |--0-------------------------|----------------------------|----------------------------|----------------------------|

                                                          
     E  E  E  E  E  E  Q          E  E  E  E  Q     Q          E  E  E  E  E  E  Q          E  E  E  E  Q     Q
  |--0-----------0-----3-------|--------0-----0-----3-------|--6-------------------------|--3-----6-----5-----3-------|
  |--------1--3-----3----------|--1-----3-----1-------------|--4-----4-----3-------------|----------------------------|
  |-----0----------------------|-----0-----0----------------|--------5-----5-----5-------|-----0-----0----------------|
  |----------------------------|----------------------------|-----5-----5-----5----------|----------------------------|
  |--3-------------------------|--3-------------------------|--3-------------------------|--3-------------------------|
  |----------------------------|----------------------------|----------------------------|----------------------------|

                                                          
     E  E  E  E  Q.       E       E  E  E  E  H                W                            E  E  Q.       E  E  E
  |--------------0-------------|----------------------------|----------------------------|-----------------------7----|
  |--3-----------2--------3----|--3-------------------------|----------------------------|--8--------------7--8-------|
  |--------2-----2-------------|----------------------------|----------------------------|--------9-------------------|
  |-----2-----2----------------|--------0--2--4-------------|--L-------------------------|-----9----------------------|
  |--0-------------------------|-----0----------------------|--L-------------------------|--7-------------------------|
  |----------------------------|--0-------------------------|--L-------------------------|----------------------------|

               
     E  E  H           Q          Q     Q     H                H           E  E  E  E       E  E  Q.       E  E  E
  |--------0-----------3-------|--0-------------------------|-----------------0----------|----------------------------|
  |--7--0----------------------|--------------1-------------|--3-----------L-----3--1----|--3-----0--------------3----|
  |----------------------------|--------0-------------------|----------------------------|-----0--------------0-------|
  |--0-------------------------|----------------------------|----------------------------|-----------------0----------|
  |----------------------------|--3-------------------------|----------------------------|--2-------------------------|
  |----------------------------|----------------------------|----------------------------|----------------------------|

                                                               ^
     Q     Q     Q     Q          Q     Q     Q     Q          W                            E  E  E  E  E  E  Q
  |----------------------------|----------------------------|--0-------------------------|--7-------------------------|
  |--3-----------------1-------|----------------------------|--1-------------------------|--------------------10------|
  |--------------0-------------|--2-----------------0-------|--2-------------------------|----------------------------|
  |--------2-------------------|--------------3-------------|--3-------------------------|--------7--10----7----------|
  |--0-------------------------|--------3-------------------|--3-------------------------|-----7--------7-------------|
  |----------------------------|--3-------------------------|----------------------------|--7-------------------------|

                   
     E  E  E  E  E  E  Q          E  E  E  E  E  E  E  E       E  E  E  E  Q     Q          E  E  E  Q.       Q
  |--3-------------------------|--0-------------------------|--0--------2----------------|--7--------8----------------|
  |--------------------6-------|--------------3-------------|--------3-----3-------------|--------10----------10------|
  |--------------5-------------|----------------------------|-----2--------------2-------|-----9----------------------|
  |--------3--7-----7----------|--------0--2--4--------0----|--4-------------------------|--10------------------------|
  |-----3----------------------|-----0--------------0-------|----------------------------|--0-------------------------|
  |--3-------------------------|--0--------------0----------|----------------------------|----------------------------|


     E  E  E  E  Q     Q          E  E  E  E  E  E  E  E       E  E  E  E  H                E  E  E  E  Q     Q
  |--3-------------------------|--0--------0--2--------0----|--2--5--0--2--5-------------|--1-----------1-------------|
  |--------------3-----6-------|--------3-----------3-------|----------------------------|-----------3--------1-------|
  |-----5--4--5----------------|-----2-----------2----------|----------------------------|--------3-------------------|
  |--3-------------------------|--0-------------------------|----------------------------|-----3----------------------|
  |----------------------------|----------------------------|----------------------------|--1-------------------------|
  |----------------------------|----------------------------|----------------------------|----------------------------|


     E  E  E  E  Q     Q          E  E  E  E  E  E  Q          E  E  E  E  E  E  E  E       W
  |--------------0-------------|--------------3-----0-------|--3-------------------------|--0-------------------------|
  |--0--------1----------------|-----------0-----0----------|--------------0-----0-------|--2-------------------------|
  |--------2-----------2-------|--0-------------------------|--------2-----2-----2-------|--2-------------------------|
  |-----2----------------------|--------2-------------------|-----2-----2-----2-----2----|----------------------------|
  |--0-------------------------|-----2----------------------|--0-------------------------|--L-------------------------|
  |----------------------------|--2-------------------------|----------------------------|----------------------------|


     Q     Q     Q     Q          E  E  E  E  E  E  E  E       E  E  E  E  E  E  E  E       E  E  E  E  E  E  E  E
  |--L-----------0-----5-------|--7-----------------5-------|--3-------------------------|--0-----------2-------------|
  |--L-------------------------|----------------------------|--------------------6-------|----------------------------|
  |--L-----2-------------------|-----------------5-----5----|-----------5----------------|-----------------2----------|
  |----------------------------|--------3--5--7-------------|-----5--7-----5--7-----7----|--------0--2--4-----2--4----|
  |--L-------------------------|-----3----------------------|----------------------------|-----0----------------------|
  |----------------------------|--3-------------------------|----------------------------|--0-------------------------|


     E  E  E  E  E  E  E  E       E  E  E  E  E  E  E  E       E  E  E  E  E  E  E  E       E  E  E  E  E  E  E  E
  |--------------------0--2----|--6-----------------5-------|--------------6--------6----|--0-----------0-------------|
  |-----------3-----3----------|--------8-----8-------------|--8--------8--------6-------|--------1--3-----3--1-------|
  |--------2-----2-------------|-----7-----7-----7-----7----|--------8--------8----------|-----0-----------------0----|
  |-----4----------------------|--5-------------------------|-----8----------------------|----------------------------|
  |--5-------------------------|----------------------------|--6-------------------------|--3-------------------------|
  |----------------------------|----------------------------|----------------------------|----------------------------|


     E  E  E  E  E  E  E  E       E  E  E  E  E  E  E  E       E  E  E  E  H                E  E  E  E  Q .      E
  |--------0-----0-----3-------|--6-----------------5-------|--3-------------------------|--------------0-------------|
  |--1-----1-----3-----3-------|--4-----4--------4-----4----|-----------4--6-------------|--3-----------2--------3----|
  |-----0-----0-----0-----0----|--------5-----5-------------|--------5-------------------|--------2-----2-------------|
  |----------------------------|-----5-----5----------------|-----5----------------------|-----2-----2----------------|
  |--3-------------------------|--3-------------------------|--3-------------------------|--0-------------------------|
  |----------------------------|----------------------------|----------------------------|----------------------------|


     E  E  E  E  H                W
  |----------------------------|----------------------------||
  |--3-------------------------|----------------------------||
  |--------------2-------------|--L-------------------------||
  |--------0--2--4-------------|--L-------------------------||
  |-----0----------------------|--L-------------------------||
  |--0-------------------------|--L-------------------------||

Login or Register to remove this ad.