Dynamic Sunset (Ano Hi Mita Hana no Namae o Bokutachi wa Mada Shiranai) Guitar Tab

Submitted: Feb 26, 2018 by FingerstyleGaming

5
Average: 5 (2 votes)
Download | Listen
Game: Ano Hi Mita Hana no Namae o Bokutachi wa Mada Shiranai
Composer(s): Remedios
Style: Arrangement, Fingerstyle

AutoScroll: Slow | Medium | Fast
                                Dynamic Sunset


Nylon Guitar
     E  E  E  E  H           E  E  H        E  S S    E  E  Q    E  E  E  S S  
E||--------------5--------|--3--1------------------|------------------------0-|
B||--------6-----6--------|--------2--------L------|--------1-------------3---|
G||--------5-----5--------|--------3--------L--5-3-|--2-----------------------|
D||-----7-----7-----------|-----3------------------|-------------------2------|
A||--8--------------------|--1---------------------|-----3----------3---------|
E||-----------------------|------------------------|--1-----1----0------------|


  E  E  E  E  H           E  E  E  E  Q    E  S S    E  E  H.            
--1--------------------|--------------1----L--0---|-----1---------------|
--------3-----3--------|--------3--1------------3-|--1-----1------------|
-----2-----2-----------|--------3-----------------|---------------------|
--0--------------------|-----3-------------3------|-----3---------------|
-----------------------|--1-----------------------|--0------------------|
-----------------------|--------------------------|---------------------|


  E  E  H        Q       H        H           E  E  E  E  Q.     E   
-----------------1----|--------------------|------------------------|
--1-------------------|--1-----------------|-----4--4--L--L------6--|
-----3-----------3----|--3--------0--------|--5-----------5---------|
--------0-------------|--------------------|--------6--8--L---------|
----------------------|--3-----------------|-----6------------------|
--3--------------3----|--------------------|--4---------------------|


   Q    Q    H           E  E  H.              Q    Q    H         
----------------------|-----5---------------|--7------------------|
---8------------------|--8-----7------------|------------3--------|
-------------8--------|--------7------------|------------4--------|
--------8-------------|-----7---------------|------------5--------|
--10------------------|--5------------------|-------5-------------|
----------------------|---------------------|--3------------------|


  E  E  E  E  E  E  E  E     Q    Q    H           E  E  E  E  H         
--------------------------|---------------------|-----------------------|
-----6-----------------8--|--9------------------|--1--2-----1--2--------|
--6-----6-----6--L--L-----|------------8--------|--------3--------------|
-----6-----6--------------|------------6--------|-----3-----------------|
--4-----4-----------------|-------6-------------|--1--------------------|
--------------------------|--8------------------|-----------------------|


  Q    E  E  H           Q    Q    H          
--4-------------------|--3------------------||
----------2--L--------|--5---------5--------||
-------3--------------|--5---------5--------||
--1-------------------|-------5-------------||
----------------------|--3------------------||
----------------------|---------------------||




Duration Legend
---------------
W - whole
H - half
Q - quarter
E - 8th
S - 16th
T - 32nd
X - 64th
. - note dotted
|-n-|  - n-tuplets


Tablature Legend
----------------
L - tied note
x - dead note
g - grace note
(n) - ghost note
> - accentuded note
NH - natural harmonic
AH - artificial harmonic
TH - tapped harmonic
SH - semi harmonic
PH - pitch harmonic
h - hammer on
p - pull off
b - bend
br - bendRelease
pb - preBend
pbr - preBendRelease
brb - bendReleaseBend
\n/ - tremolo bar dip
\n - tremolo bar dive
-/n - tremolo bar Release up
/n\ - tremolo bar inverted dip
/n - tremolo bar return
-\n - tremolo bar Release down
S - shift slide
s - legato slide
/ -  slide into from below or out of upwards
\ -  slide into from above or out of downwards
~ - vibrato
W - wide vibrato
tr - trill
TP - tremolo picking
T - tapping
S - slap
P - pop
< - fade in
^ - brush up
v - brush down
Login or Register to remove this ad.