Ads

All About Her Death (Ano Hi Mita Hana no Namae o Bokutachi wa Mada Shiranai) Guitar Tab

Submitted: Aug 18, 2014 by tomorning (Last updated: Aug 20, 2014)

5
Average: 5 (5 votes)
Download | Listen
Game: Ano Hi Mita Hana no Namae o Bokutachi wa Mada Shiranai
Composer(s): Remedios
Style: Arrangement, Artificial harmonics, Fingerstyle

AutoScroll: Slow | Medium | Fast
                                 all about her death
         ~ from anime "Ano Hi Mita Hana no Namae o Bokutachi wa Mada Shiranai" ~

Music by REMIDOS
tabber by to*morning

 4/4 (2beat feal)

2 pattern . Melody or Tripret phrase.

--*--*--*--*--*--*--*--*--*--*--*--*--*--*--*--*--*--*--*--*--*--*--*--*--*--*--*--*--*--*--*--*--*--*--*--*--*--*--*--*--*--

** original melody pattern


Drop D (D,A,D,G,B,E) with CAPO 1

Q=72

CAPO 1

                 >             >                                      >        >        >           >     >
                               |--3--|  |--3--|  |--3--|  |--3--|     |--3--|  |--3--|  |--3--|           |--3--|  |--3--|  |--3--|  |--3--|
          Q      Q.     E      E  E  E  E  E  E  E  E  E  E  E  E     E  E  E  E  E  E  E  E  E  E  E     E  E  E  E  E  E  E  E  E  E  E  E   
E||------------2h3------2--||-----------0--------------------------|--------------------0--------------|--------------------------------------|
B||-------0----------------||--0-----------0--------------0--------|-----------0--------------------3--|-----------0-----------------0--------|
G||------------------------||--------0--------0--------0-----0-----|-----------0-----------------0-----|--0-----0-----0-----------0-----0-----|
D||------------------------||-----2-----------------2-----------2--|--------2-----2-----------2--------|-----2-----------2-----2-----------2--|
A||------------------------||--------------------------------------|-----2-----------2-----2-----------|--4-----------------4-----------------|
D||------------------------||--2-----------------2-----------------|--0-----------------0--------------|--------------------------------------|


  >        >                   >        >            >    >                   >        >        >                 >                                
  |--3--|  |--3--|  |--3-|  |-3|        |--3-|  |---3---| |--3-|  |--3--|     |--3--|  |--3--|  |--3--|           |--3--|  |--3--|  |--3--|
  E  E  E  E  E  E  Q    E  E  Q        Q    E  Q    S  S Q    E  E  E  E     E  E  E  E  E  E  E  E  E  E E      E  E  E  E  E  E  E  E  E  Q
|------------------------------------|----------------------------0--------|--------------------0--------------|----------------------------------|
|-----------3-------------------1----|--0------------1p-0------------1-----|-------------------------------1---|--0--------0----------------------|
|--------0-----0-------------0-------|----------2---------2-------------2--|-----------2-----------------2-----|--0-----------0-----------0-------|
|-----2-----------2-------2----------|-------2-----------------2-----------|--------0-----0-----------0--------|--------0--------0-----0-----4----|
|--3-----------------3---------------|--0-----------------0----------------|-----0-----------0-----0-----------|-----2----------------------------|
|------------------------------------|-------------------------------------|--0-----------------0--------------|--------------------5-------------|


                                                                                                              1----\                               \--|
     >        >       >          >     >                 >                   >        >       >            >     >                                      
     |--3--|  |--3-|  |--3-|           |--3--|  |--3--|  |--3-|  |--3--|     |--3--|  |--3-|  |--3-|  |--3-|     |--3--|  |--3--|  |--3--|  |--3--|
     E  E  E  Q    E  Q    E  E  E     E  E  E  E  E  E  Q    E  E  E  E     E  E  E  Q    E  Q    E  Q    E     E  E  E  E  E  E  E  E  E  E  E  E 
||----------------------------------|-----------0----------------0--------|-----------------------------------|---------------------------------------||
||------------0---------------------|--0-----------0----------------0-----|-----------0-----------------------|--0--------0-----------------0---------||
||*--------0-------0-------------0--|--------2--------2-------2--------2--|--------2-------2---------------0--|--------2-----0-----------0-----0-----*||
||*-----2-------------2-------2-----|-----2--------------2----------------|-----2-------------2-------2-------|-----2-----------2-----2-----------2--*||
||---3---------------------3--------|--4-----------------4----------------|--4---------------------4----------|--3-----------------3------------------||
||----------------------------------|-------------------------------------|-----------------------------------|---------------------------------------||


2--\ 
   >                              >                                   >        
   |--3--|  |--3--|  |--3-|  |--3-|                                              
   E  E  E  E  E  E  Q    E  Q    E     W                        Q      Q.     E
|------------------------------------|-------------------|------------2h3------2--||
|--0--------0------------------------|-------------------|-------0----------------||
|--------2-----2------------------0--|-------------------|------------------------||
|-----2-----------2-------2----------|--4----------------|------------------------||
|--3-----------------3---------------|-------------------|------------------------||
|------------------------------------|-------------------|------------------------||


   >                                      >        >        >           >     >                                      >        >                 >  
   |--3--|  |--3--|  |--3--|  |--3--|     |--3--|  |--3--|  |--3--|           |--3--|  |--3--|  |--3--|  |--3--|     |--3--|  |--3--|  |--3--|   
   E  E  E  E  E  E  E  E  E  E  E  E     E  E  E  E  E  E  E  E  E  E  E     E  E  E  E  E  E  E  E  E  E  E  E     E  E  E  E  E  E  E  E  E  E   
|-----------0--------------------------|--------------------0--------------|--------------------------------------|----------------------------------|
|--0-----------0--------------0--------|-----------0--------------------3--|-----------0-----------------0--------|-----------3-----------------1----|
|--------0--------0--------0-----0-----|-----------0-----------------0-----|--0-----0-----0-----------0-----0-----|--------0-----0-----------0-------|
|-----2-----------------2-----------2--|--------2-----2-----------2--------|-----2-----------2-----2-----------2--|-----2-----------2-----2----------|
|--------------------------------------|-----2-----------2-----2-----------|--4-----------------4-----------------|--4-----------------4-------------|
|--2-----------------2-----------------|--0-----------------0--------------|--------------------------------------|----------------------------------|


   >                     >        >          >                 >                                    
   |--3--|  |----3---|  |--3--|  |--3--|     |--3--|  |--3--|  |--3--|           |--3--|  |--3--|  |--3--|  |--3--|
   E  E  E  E  E  S  S  E  E  E  E  E  E     E  E  E  E  E  E  E  E  E  E  E     E  E  E  E  E  E  E  E  E  E  E  E
|-----------0--------------------0--------|--------------------0--------------|--------------------------------------||
|--0--------------1p-0--------------1-----|--------------------------------1--|--0-----------------------------------||
|--------2-----2--------2-----2--------2--|-----------2-----------------2-----|-----------4-----------------4--------||
|-----2--------------------2--------------|--------0-----0-----------0--------|--------4-----4-----------4-----4-----||
|--0--------------------------------------|-----0-----------0-----0-----------|-----5-----------5-----5-----------5--||
|-----------------------------------------|--0-----------------0--------------|--5-----------------5-----------------||


    >    >    >    >       >                                      >        >        >           >       >                                    
                           |--3--|  |--3--|  |--3--|  |--3--|     |--3--|  |--3--|  |--3--|  |-3|       |--3--|  |--3--|  |--3--|  |--3--|
    Q    Q    Q    Q       E  E  E  E  E  E  E  E  E  E  E  E     E  E  E  E  E  E  E  E  E  E  Q       E  E  E  E  E  E  E  E  E  E  E  E  
||-------7----0----3----|--7-----------------0-----------------|-----------7--------0-----------3----|--7--------0-----------------0--------|
||-------0----0----0----|-----------0-----------------0--------|--------0-----0--------0-------------|--------0-----0-----------0-----0-----|
||-------0----0----0----|--------0-----0-----------0-----0-----|-----0-----------0--------0----------|-----0-----------0-----0-----------0--|
||----------------------|-----2-----------2-----2-----------2--|-------------------------------------|--------------------------------------|
||--3--------------3----|--4-----------------4-----------------|--4--------------------------4-------|--3-----------------3-----------------|
||----------------------|--------------------------------------|-------------------------------------|--------------------------------------|


   >        >        >           >       >                                      >        >        >           >
   |--3--|  |--3--|  |--3--|  |-3|       |--3--|  |--3--|  |--3--   |--3--|     |--3--|  |--3--|  |--3--|  |-3|   
   E  E  E  E  E  E  E  E  E  E  Q       E  E  E  E  E  E  E  E     E  E  E     E  E  E  E  E  E  E  E  E  E  Q   
|-----------7--------0-----------3----|--7-----------------0-----------------|-----------7--------0-----------3----|
|--------0-----0--------0-------------|-----------0-----------------0--------|--------0-----0--------0-------------|
|-----0-----------0--------0----------|--------0-----0-----------0-----0-----|-----0-----------0--------0----------|
|-------------------------------------|-----2-----------2-----2-----------2--|-------------------------------------|
|--3--------------------------3-------|--4-----------------4-----------------|--4--------------------------4-------|
|-------------------------------------|--------------------------------------|-------------------------------------|


                                                                     >          
   |--3--|  |--3--|  |--3--|  
   E  E  E  E  E  E  E  E  E  Q          A.H      A.H
|--7--------0---------------------|------------------------|---------------------*|
|--------0-----0--------------0---|--<12>0-----------------|---------------------*|
|-----0-----------0--------0------|------------------------|---------------------*|
|-----------------------2---------|-----------<14>2--------|---------------------*|
|--3-----------------3------------|------------------------|---------------------*|
|---------------------------------|------------------------|---------------------*|   fine.



--*--*--*--*--*--*--*--*--*--*--*--*--*--*--*--*--*--*--*--*--*--*--*--*--*--*--*--*--*--*--*--*--*--*--*--*--*--*--*--*--*--

** triplet ver - check zip folder for mp3

Drop D (D,A,D,G,B,E) with CAPO 1

Q=72

CAPO 1


E||------------2g3------2--|-----------0--------------------------|--------------------0----------------|--------------------------------------|
B||-------0----------------|--0-----------0--------------0--------|-----------0--------------------3----|-----------0-----------------0--------|
G||------------------------|--------0--------0--------0-----0-----|-----------0-----------------0-------|--0-----0-----0-----------0-----0-----|
D||------------------------|-----2-----------------2-----------2--|--------2-----2-----------2----------|-----2-----------2-----2-----------2--|
A||------------------------|--------------------------------------|-----2-----------2-----2-------------|--4-----------------4-----------------|
D||------------------------|--2-----------------2-----------------|--0-----------------0----------------|--------------------------------------|



|----------------------------------|-----------0-------------------0--------|--------------------0----------------|----------------------------------|
|-----------3-----------------1----|--0--------------1p-0-------------1-----|--------------------------------1----|--0--------0----------------------|
|--------0-----0-----------0-------|--------2-----2-------------2--------2--|-----------2-----------------2-------|--0-----------0-----------0-------|
|-----2-----------2-----2----------|-----2-------------------2--------------|--------0-----0-----------0----------|--------0--------0-----0-----4----|
|--3-----------------3-------------|--0-------------------------------------|-----0-----------0-----0-------------|-----2----------------------------|
|----------------------------------|----------------------------------------|--0-----------------0----------------|--------------------5-------------|


1.

||------------7--------0-----------3----|--7-----------------0-----------------|-----------7--------0-----------3----|--7--------0-----------------0---------||
||---------0-----0--------0-------------|-----------0-----------------0--------|--------0-----0--------0-------------|--------0-----0-----------0-----0------||
||*-----0-----------0--------0----------|--------0-----0-----------0-----0-----|-----0-----------0--------0----------|-----0-----------0-----0-----------0--*||
||*-------------------------------------|-----2-----------2-----2-----------2--|-------------------------------------|--------------------------------------*||
||---3--------------------------3-------|--4-----------------4-----------------|--4--------------------------4-------|--3-----------------3------------------||
||--------------------------------------|--------------------------------------|-------------------------------------|---------------------------------------||


2.

|--7--------0-----------------------|-------------------|------------2g3------2--||
|--------0-----0--------------------|-------------------|-------0----------------||
|-----0-----------0------------0----|-------------------|------------------------||
|-------------------------2---------|--4----------------|------------------------||
|--3-----------------3--------------|-------------------|------------------------||
|-----------------------------------|-------------------|------------------------||



||-----------0--------------------------|--------------------0--------------|--------------------------------------|----------------------------------|
||--0-----------0--------------0--------|-----------0--------------------3--|-----------0-----------------0--------|-----------3-----------------1----|
||--------0--------0--------0-----0-----|-----------0-----------------0-----|--0-----0-----0-----------0-----0-----|--------0-----0-----------0-------|
||-----2-----------------2-----------2--|--------2-----2-----------2--------|-----2-----------2-----2-----------2--|-----2-----------2-----2----------|
||--------------------------------------|-----2-----------2-----2-----------|--4-----------------4-----------------|--4-----------------4-------------|
||--2-----------------2-----------------|--0-----------------0--------------|--------------------------------------|----------------------------------|



|-----------0-------------------0--------|--------------------0--------------|--------------------------------------||
|--0--------------1p-0-------------1-----|--------------------------------1--|--0-----------------------------------||
|--------2-----2-------------2--------2--|-----------2-----------------2-----|-----------4-----------------4--------||
|-----2-------------------2--------------|--------0-----0-----------0--------|--------4-----4-----------4-----4-----||
|--0-------------------------------------|-----0-----------0-----0-----------|-----5-----------5-----5-----------5--||
|----------------------------------------|--0-----------------0--------------|--5-----------------5-----------------||



||-----------7--------0-----------3----|--7-----------------0-----------------|-----------7--------0-----------3----|--7--------0-----------------0--------|
||--------0-----0--------0-------------|-----------0-----------------0--------|--------0-----0--------0-------------|--------0-----0-----------0-----0-----|
||-----0-----------0--------0----------|--------0-----0-----------0-----0-----|-----0-----------0--------0----------|-----0-----------0-----0-----------0--|
||-------------------------------------|-----2-----------2-----2-----------2--|-------------------------------------|--------------------------------------|
||--3--------------------------3-------|--4-----------------4-----------------|--4--------------------------4-------|--3-----------------3-----------------|
||-------------------------------------|--------------------------------------|-------------------------------------|--------------------------------------|



|-----------7--------0-----------3----|--7-----------------0-----------------|-----------7--------0-----------3----|
|--------0-----0--------0-------------|-----------0-----------------0--------|--------0-----0--------0-------------|
|-----0-----------0--------0----------|--------0-----0-----------0-----0-----|-----0-----------0--------0----------|
|-------------------------------------|-----2-----------2-----2-----------2--|-------------------------------------|
|--3--------------------------3-------|--4-----------------4-----------------|--4--------------------------4-------|
|-------------------------------------|--------------------------------------|-------------------------------------|


|--7--------0----------------------|--------------------------|---------------------||
|--------0-----0--------------0----|--<12>0-------------------|---------------------||
|-----0-----------0--------0-------|--------------------------|---------------------||
|-----------------------2----------|-------------<14>2--------|---------------------||
|--3-----------------3-------------|--------------------------|---------------------||
|----------------------------------|--------------------------|---------------------||

Login or Register to remove this ad.

4 comments on All About Her Death

Url miss, Triplet

Url miss, Triplet replay
http://www.gametabs.net/files/user/tomorning/all%20about%20her%20death%20-triplet-replay.mp3

I included the triplet

I included the triplet version mp3 in the zip folder above. So you can remove it from your profile file browser if you want.

URL's do not show up in the tab text field if you use the insert link function, only if you post the text.

ñ

5

awesome tab!

Excellen, can't wait to get

Excellent, can't wait to get home and play this.