Ads

You Monster (Anna) Guitar Tab

Submitted: Jan 06, 2014 by scarecrowlol

5
Average: 5 (4 votes)
Download | Listen
Game: Anna
Composer(s): Alessandro Monopoli
Style: Arrangement, Fingerstyle

AutoScroll: Slow | Medium | Fast
Title: You Monster
SubTitle: Anna
Artist: Alessandro Monopoli
Tabber: Mitch Jackson
Tempo = 110
T/S = 4/4


     ^                            ^           ^                ^                            ^           ^ 
     E  E  E  E  E  E  E  E       E  E  E  E  E  E  E  E       E  E  E  E  E  E  E  E       E  E  E  E  E  E  E  E     
E |--2----------------(2)------|--2-----2-----3-----2-------|--2----------------(2)------|--0-----------5-----3-------|
B |--3-----3-----------3-------|--3-----3-----3----(3)------|--3-----3-----------3-------|--3-----2-----0-------------|
G |--0--------0-----------0----|--0--------0--0--------0----|--0--0-----0-----0-----0----|-----2-----0--0--0-----0----|
D |--2--2-----------2----------|-----2-----------2----------|----------------------------|----------------------------|
A |----------------------------|----------------------------|----------------------------|--0-------------------------|
E |--0-----------0-------------|--0-----------0-------------|--3-----------3-------------|--------------3-------------|

               
                                  ^           ^                ^                            ^           ^     
     E  E  E  E  E  E  E  E       E  E  E  E  E  E  E  E       E  E  E  E  E  E  E  E       E  E  E  E  E  E  Q        
  |--2----------------(2)------|--2-----------3--5--3--2----|--2----------------(2)------|--0-----------5-----3-------|
  |--3-----3-----------3-------|--3-----3-------------------|--3-----3-----------3-------|--3-----2-----0-------------|
  |--0--------0-----------0----|--0--------0--0-------------|--0--0-----0-----0-----0----|--0--2-----0--0--0----------|
  |-----2-----------2----------|-----2----------------------|----------------------------|----------------------------|
  |----------------------------|----------------------------|----------------------------|--0-------------------------|
  |--0-----------0-------------|--0-----------0-------------|--3-----------3-------------|--------------3-------------|

           
                                  ^           ^                ^                            ^           ^   
     E  E  E  E  E  E  E  E       E  E  E  E  E  E  E  E       E  E  E  E  E  E  E  E       E  E  E  E  E  E  E  E     
  |--2----------------(2)------|--2-----2-----3-----2-------|--2----------------(2)------|--0-----------5-----3-------|
  |--------3-----------3-------|--3-----3-----3----(3)------|--3-----3-----------3-------|--3-----2-----0-------------|
  |-----------0-----------0----|-----------0-----------0----|--0--0-----0-----0-----0----|-----2-----0--0--0-----0----|
  |-----2-----------2----------|-----2-----------2----------|----------------------------|----------------------------|
  |----------------------------|----------------------------|----------------------------|--0-------------------------|
  |--0-----------0-------------|--0-----------0-------------|--3-----------3-------------|--------------3-------------|

            
                                  ^           ^                ^                            ^           ^    
     E  E  E  E  E  E  E  E       E  E  E  E  E  E  E  E       E  E  E  E  E  E  E  E       E  E  E  E  E  E  E  E     
  |--2----------------(2)------|--2-----------3--5--3--2----|--2----------------(2)------|--0-----------5-----3-------|
  |--3-----3-----------3-------|--3-----3-------------------|--3-----3-----------3-------|--3-----2-----0-------------|
  |-----------0-----------0----|--0--------0--0-------------|-----0-----0-----0-----0----|-----2-----0-----0-----0----|
  |-----2-----------2----------|-----2----------------------|--0-------------------------|--2-----------0-------------|
  |--2-------------------------|----------------------------|----------------------------|--0-------------------------|
  |--0-----------0-------------|--0-----------0-------------|--3-----------3-------------|--------------3-------------|

           
     ^                                                         ^                                                   
     E  E  E  E  E  E  E  E       E  E  E  E  E  E  E  E       E  E  E  E  E  E  E  E       E  E  E  E  E  E  E  E     
  |--------2--0----------------|--2-----0-----------2-------|--2-----------------2-------|--2--------0--------2-------|
  |--3-----------------3-------|-----2-----2--------3-------|--3-----2-----------3-------|--------2-------------------|
  |-----0-----------------0----|-----------------------0----|-----------2-----------2----|-----2-----------------0----|
  |--0--------------0----------|-----------------2----------|--4--------------4----------|-----------------2----------|
  |--2-----------2-------------|--0-----------0-------------|-----5----------------------|----------------------------|
  |----------------------------|----------------------------|--2-----------2-------------|--0-----------0-------------|

                                                                           100BPM                       110BPM
     ^                                                                     ^ 
     E  E  E  E  E  E  E  E       E  E  E  E  E  E  E  E       E  E  E  E  H                H           E  E  E  E     
  |--2-----2--0--------2-------|--2-------------------------|--------------0L------------|--L-----------2-------------|
  |--3-----------------3-------|--------2-----------2-------|--------3-----3L------------|--L-----------------3-------|
  |-----0-----------------0----|-----2-----2-----------2----|-----------0--0L------------|--L--------------0-----0L---|
  |--0--------------0----------|-----------------2----------|-----0--------2L------------|--L-------------------------|
  |--2-----------2-------------|----------------------------|--------------2L------------|--L-------------------------|
  |----------------------------|--2-----------5-------------|--3-----------0L------------|--L-------------------------|

                                2/4                       
                                                   ^                                        ^                   
     Q     E  E  E  E  E  E       E  E  E  E       E  E  E  E  E  E  E  E       E  E  E  E  E  E  E  E     
  |--------2-----2-------------|--3-----2-------|--2----------------(2)------|--2-----2-----3-----2-------|
  |--------------------3-------|----------------|--3-----3-----------3-------|--3-----3-----3----(3)------|
  |--L--------0-----0-----0----|-----0-----0----|--0--------0-----------0----|-----------0--0--------0----|
  |----------------------------|----------------|--2--2-----------2----------|-----2-----------2----------|
  |----------------------------|----------------|----------------------------|----------------------------|
  |----------------------------|----------------|--0-----------0-------------|--0-----------0-------------|

 
     ^                            ^           ^                                             ^           ^  
     E  E  E  E  E  E  E  E       E  E  E  E  E  E  E  E       E  E  E  E  E  E  E  E       E  E  E  E  E  E  E  E     
  |--2----------------(2)------|--0-----------5-----3-------|--2----------------(2)------|--2-----------3--5--3--2----|
  |--3-----3-----------3-------|--3-----2-----0-------------|--3-----3-----------3-------|--3-----3-------------------|
  |--0--0-----0-----0-----0----|-----2-----0--0--0-----0----|-----------0-----------0----|--0--------0--0-------------|
  |----------------------------|----------------------------|-----2-----------2----------|-----2----------------------|
  |----------------------------|--0-------------------------|--2-------------------------|----------------------------|
  |--3-----------3-------------|--------------3-------------|--0-----------0-------------|--0-----------0-------------|
                                          

     ^                            ^           ^ 
     E  E  E  E  E  E  E  E       E  E  E  E  E  E  E  E       E  E  E  E  E  E  E  E       E  E  E  E  E  E  Q        
  |--2----------------(2)------|--0-----------5-----3-------|----------------------------|--------------------0-------|
  |--3-----3-----------3-------|--3-----2-----0-------------|--3-----------------3-------|--3-----2-----3-------------|
  |-----0-----0-----0-----0----|-----2-----0-----0-----0----|--------2-----------2-------|--2--------2-----2----------|
  |--0-------------------------|--2-----------0-------------|-----0-----0-----0-----0----|-----2----------------------|
  |----------------------------|--0-------------------------|--2-----------2-------------|--0-------------------------|
  |--3-----------3-------------|--------------3-------------|----------------------------|----------------------------|

                                            

     E  E  E  E  E  E  E  E       E  E  E  E  E  E  E  E       E  E  E  E  E  E  E  E       E  E  E  E  E  E  E  E     
  |--0-----------------2-------|--------------------0-------|----------------------------|--------------------0-------|
  |--------3-----------3-------|--3-----2-----3-----3-------|--3-----3-----------3-------|--3-----2-----3-----3-------|
  |-----0-----0-----------0----|--0--0-----0-----0-----0----|-----------2--------2-------|--2-----2-----2-------------|
  |-----------------2----------|----------------------------|-----0-----------0-----0----|-----2-----2-----2-----2----|
  |----------------------------|----------------------------|--2-----------2-------------|--0-------------------------|
  |--0-----------0-------------|--0-------------------------|----------------------------|----------------------------|

                                                          

     E  E  E  E  E  E  E  E       E  E  E  E  E  E  E  E       S S E  E  E  E  E  E  E       E  E  E  E  E  E  E  E     
  |-----------2--------3-------|-----5--------5-------------|--5s7----5-----10----3-------|--3-----------2--------0----|
  |--3--------3--------3-------|-----3--------3-------------|-----------------------------|--0-----2-----3-----3-------|
  |-----0--------0--------0----|--------0--------0-----0----|------------0-----0-----0----|-----0-----0-----0----------|
  |----------------------------|----------------------------|-----------------------------|----------------------------|
  |----------------------------|----------------------------|------7----------------------|----------------------------|
  |--3-----3--------0--3-------|--3--------3--------3-------|--0--------------------------|--3-------------------------|

                            
     ^
     E  E  E  E  S S E  E  E       E  E  E  E  E  E  E  E       S S E  E  E  E  E  E  E       E  E  E  E  E  E  E  E     
  |--0------------------0-------|--0-----------0-------------|--5s7----5-----10----3-------|--2-----------2-------------|
  |--------2-----2s3----0-------|--0-----0-----0-------------|---------0-------------------|--------3-----3-------------|
  |--2--2-----0------0-----0----|-----0-----0-----0-----0----|------------0-----0-----0----|-----0-----0-----0-----0----|
  |-----------------------------|----------------------------|-----------------------------|----------------------------|
  |--0--------------------------|----------------------------|------7----------------------|----------------------------|
  |--------------0--------------|--0-----------------0-------|--0--------------------------|--3-----------------3-------|

                             
                 ^
     E  E  E  E  E  E  E  E       E  E  E  E  E  E  E  E       S S E  E  E  E  E  E  E       E  E  E  E  E  E  E  E     
  |--0----(0)----0-------------|--0----------(3)------------|---------------2-------------|----------------------------|
  |--2-----2-----0-----0-------|--0-----------0-------------|--3s5----3-----------2-------|--0-----------0-------------|
  |-----2-----2-----2-----0----|----------------------------|------------0-----0-----0----|-----0-----0-----0-----0----|
  |----------------------------|-----2-----2-----2-----2----|------2----------------------|----------------------------|
  |--0-------------------------|----------------------------|-----------------------------|----------------------------|
  |--------------0-------------|--------0-----------0-------|--0--------------------------|--3-----3-----------3-------|
                             

   
     E  E  E  E  E  E  E  E       E  E  E  E  E  E  E  E       S S E  E  E  E  E  E  E       E  E  E  E  E  E  E  E     
  |--------------0-------------|--0----------(0)------------|---------------2-------------|--------------0-------------|
  |--0--------------------0----|--0-----------0-------------|--3s5----3-----------2-------|--0-----------0-------------|
  |-----2-----2-----2----------|-----0-----0-----0-----0----|------0----------------------|-----0-----0-----0-----0----|
  |----------------------------|----------------------------|-----------------------------|----------------------------|
  |--0-----0-----------0-------|----------------------------|-----------------------------|--------------------0-------|
  |----------------------------|--0-----0-----------0-------|--0---------0-----0-----0----|--3-----3-------------------|

                             

     E  E  E  E  E  E  E  E       E  E  E  E  E  E  E  E       E  E  E  E  E  E  E  E       E  E  E  E  E  E  E  E     
  |--------------------0-------|--0-----------0-------------|--------0-------------------|--0-----------------0-------|
  |--3-----------3-------------|--0-----3-----------3-------|--3-----------3-----3-------|--------3-----3-----3-------|
  |--2--2-----2-----2-----0----|-----0-----0-----0-----0----|-----0-----0-----0-----0----|-----0-----0-----0-----0----|
  |----------------------------|----------------------------|----------------------------|----------------------------|
  |--------0-------------------|----------------------------|----------------------------|----------------------------|
  |----------------------------|--0-------------------------|----------------------------|----------------------------|

                                                          
                                                               ^                                        ^ 
     E  E  E  E  E  E  E  E       E  E  E  E  E  E  E  E       E  E  E  E  E  E  E  E       E  E  E  E  E  E  E  E     
  |--2-----------------2-------|--2----------(3)----2-------|--2-----------------2-------|--0-----------5-----3-------|
  |--3-----3-----------3-------|--3-----3-----3-----3-------|--3-----3-----------3-------|--3-----2-----0-------------|
  |-----0-----0-----0-----0----|-----0-----0-----0-----0----|--0--0-----0-----0-----0----|-----2-----0--0--0-----0----|
  |----------------------------|----------------------------|----------------------------|----------------------------|
  |----------------------------|----------------------------|----------------------------|--0-------------------------|
  |--0-----------0-------------|--0-------------------------|--3-----------3-------------|--------------3-------------|

                                                       
                                              ^                                                         ^
     E  E  E  E  E  E  E  E       E  E  E  E  E  E  E  E       E  E  E  E  E  E  E  E       E  E  E  E  S S E  E  E     
  |--2-----------------2-------|--2-----------3--5--3h-2----|--2-----------------2-------|--0-----------2------0-------|
  |--3-----3-----------3-------|--3-----3-------------------|--------3-----------3-------|--3-----------2h3----0-------|
  |-----0-----0-----0-----0----|-----0-----0--0-------------|-----0-----0-----0-----0----|-----2--2h-0------0-----0----|
  |----------------------------|----------------------------|----------------------------|-----------------------------|
  |----------------------------|----------------------------|----------------------------|--0--------------------------|
  |--0-----------0-------------|--0-----------0-------------|--3-----------3-------------|--------------0--------------|

                                                        
     ^
     W                            W                          
  |--0-------------------------|--L-------------------------|
  |--0-------------------------|--L-------------------------|
  |--0-------------------------|--L-------------------------|
  |--2-------------------------|--L-------------------------|
  |--2-------------------------|--L-------------------------|
  |--0-------------------------|--L-------------------------|

Login or Register to remove this ad.

3 comments on You Monster

Anna soundtracks are always

5

Anna soundtracks are always so calming, you're doing great is there more to come ? :D Asking because I really love the soundtrack in general.

I agree! super calming :3 Yea

I agree! super calming :3 Yea i would definitely like to work on some more of the tracks and see what i can come up with, but haven't decided on which piece to do next.

Very beautiful

5

Well done, easy and beautiful to play! I have been trying to figure these tabs out by myself but I didn't have the skill to do it yet :)
10 / 10

edit:
my take on this beautiful song
https://soundcloud.com/mickegitarr/anna-you-monster