Ads

Musica Strana (Anna) Guitar Tab

Submitted: Feb 15, 2014 by scarecrowlol

5
Average: 5 (4 votes)
Download | Listen
Game: Anna
Composer(s): Alessandro Monopoli
Style: Arrangement, Fingerstyle, Natural harmonics

AutoScroll: Slow | Medium | Fast
Title: MusicaStrana
SubTitle: Anna
Artist: Alessandro Monopoli
Tabber: Mitch Jackson
Tempo = 73
T/S = 4/4

--------
LEGEND
--------
<> = HARMONIC
s = SLIDE
h = HAMMER ON
p = PULL OFF
() = GHOST NOTE
T = Use your thumb to fret the bass note -
    (only used once but will make getting 
     back into next chord's position easier)




     H     H          H     H          H     H          H     H          H     H          H     H        
E |-<12>-----------|--13------------|-<12>-----------|--15------------|-<12>-----------|--13----10------|
B |--------16------|--------15------|--------16------|--------14------|-<12>---16------|--14----9-------|
G |----------------|----------------|----------------|----------------|--------15------|----------------|
D |----------------|----------------|----------------|----------------|----------------|----------------|
A |----------------|----------------|----------------|----------------|----------------|----------------|
E |----------------|----------------|----------------|----------------|----------------|----------------|

                                   3/4  
                            F      110BPM 
     H     H          H     H          E  E  E  E  E  E       E  E  E  E  E  E       E  E  E  E  E  E     
  |-<12>-----------|--15------------|--------0-----0-------|----------------------|--------0-----0-------| 
  |-<12>---16------|--14----14------|----------------------|--------3-----3-------|----------------------|
  |--------15------|--------13------|--------0--2-----2----|--------0--2-----2----|--------0--2-----2----|
  |----------------|----------------|-----3----------------|-----3----------------|-----3----------------|
  |----------------|----------------|--5-------------------|--5-------------------|--0-------------------|
  |----------------|----------------|----------------------|----------------------|----------------------|

                                                                 
     T
     E  E  E  E  E  E       E  E  E  E  E  E       E  E  E  E  E  E       E  E  E  E  E  E
  |----------------------|--------0-----0-------|----------------------|--------0-----0-------|
  |--------3-----3-------|----------------------|--------3-----3-------|----------------------|
  |--------0--2-----2----|--------0--2-----2----|--------0--2-----2----|--------0--2-----2----|
  |-----3----------------|-----3----------------|-----3----------------|-----3----------------|
  |----------------------|--5-------------------|--5-------------------|--3-------------------|
  |--3-------------------|----------------------|----------------------|----------------------|


                            ^
     E  E  E  E  E  E       E  E  E  S S E  E       E  E  E  E  E  E       E  E  E  E  E  E     
  |----------------------|--1--------0h1-3--1----|--------------0-------|--0-----0--1-----1----|
  |--------3-----3-------|-----------------------|--1s-3--3----(3)-3----|--------------3-------|
  |--------0--2-----2----|--2-----0--2-----------|--------0--2-----2----|--------0--2-----2----|
  |-----3----------------|--0--3-----------------|--0--3----------------|-----3----------------|
  |----------------------|-----------------------|----------------------|--0-------------------|
  |--3-------------------|-----------------------|----------------------|----------------------|

                                                               
                            ^                                      |-3-|
     E  E  E  E  E  E       E  E  E  S S E  E       E  E  E  E  E  S S S      E  E  E  E  E  E     
  |--0-------------------|--1--------0h1-3--1----|--------------0----------|--------------0-------|
  |--------3-----3-------|-----------------------|--1s-3--3----(3)-3h5p3---|--1--------0----(0)---|
  |--------0--2-----2----|--2-----0--2-----------|--------0--2-------------|--------0--2-----2----|
  |-----3----------------|--0--3-----------------|--0--3-------------------|-----3----------------|
  |----------------------|-----------------------|-------------------------|--3-------------------|
  |--3-------------------|-----------------------|-------------------------|----------------------|

                                        
                              ^
     S S S S E  E  E  E       E  E  E  S S E  E       E  E  E  E  E  E       E  E  E  E  E  E     
  |------------------------|--1------------0-------|----------------------|--1--------3--0-------|
  |--1h3---3-------3-------|--3--------1h3----3----|-------(3)----3--1----|--3--------5----------|
  |----------0--2-----2----|--2-----0--2-----------|--0--2--0--2-----2----|--------0--2-----2----|
  |------3-----------------|--0--3-----------------|--0--3----------------|-----3----------------|
  |------------------------|-----------------------|----------------------|--0-------------------|
  |--3---------------------|-----------------------|----------------------|----------------------|

                                                               
                            ^                                      |-3-|
     E  E  E  E  E  E       E  E  E  S S E  E       E  E  E  E  E  S S S      E  E  E  E  E  E     
  |--1--------0----------|--1------------0-------|-------------------------|--------------0-------|
  |--3-----------3-------|--3--------1h3----3----|-------(3)----3--3s5s3---|--1--------1----------|
  |--------0--2-----2----|--2-----0--2-----------|--0--2--0--2-----2s4s2---|--2-----0--2-----2----|
  |-----3----------------|--0--3-----------------|--0--3-------------------|-----3----------------|
  |----------------------|-----------------------|-------------------------|--3-------------------|
  |--3-------------------|-----------------------|-------------------------|----------------------|

  

     E  E  E  E  E  E       E  E  E  E  E  E       E  E  E  E  E  E       E  E  E  E  E  E
  |----------------------|-----------0----------|-----------0----------|-----------0----------|
  |--3-----------3-------|--------5-----5-------|--------3-----3-------|--------5-----5-------|
  |--0-----0--2-----2----|-----2-----------2----|-----2-----------2----|-----2-----------2----|
  |-----3----------------|--0-------------------|--0-------------------|----------------------|
  |----------------------|----------------------|----------------------|--0-------------------|
  |--3-------------------|----------------------|----------------------|----------------------|


                                                 SLOWLY FADE OUT --->
     E  E  E  E  E  E       E  E  E  E  E  E       E  E  E  E  E  E       E  E  E  E  E  E
  |-----------0----------|-----------0----------|-----------0----------|-----------0----------|
  |--------3-----3-------|--------5-----5-------|--------3-----3-------|--------3-----3-------|
  |-----0-----------0----|-----2-----------2----|-----2-----------2----|-----0-----------0----|
  |----------------------|--0-------------------|--0-------------------|----------------------|
  |----------------------|----------------------|----------------------|--3-------------------|
  |--3-------------------|----------------------|----------------------|----------------------|



     E  E  E  E  E  E       H.
  |-----------0----------|--L-------------------||
  |--------3-----3-------|--L-------------------||
  |-----0-----------0----|--L-------------------||
  |----------------------|----------------------||
  |----------------------|----------------------||
  |--3-------------------|--L-------------------||

Login or Register to remove this ad.