Ads

Just Inside (Anna) Guitar Tab

Submitted: Jan 11, 2014 by scarecrowlol (Last updated: Jan 12, 2014)

5
Average: 5 (7 votes)
Download | Listen
Game: Anna
Composer(s): Alessandro Monopoli
Style: Arrangement, Fingerstyle

AutoScroll: Slow | Medium | Fast
Title: Just Inside
SubTitle: Anna
Artist: Alessandro Monopoli
Tabber: Mitch Jackson
Tempo = 80
T/S = 4/4


                                               ^ 
      E  E  E  E  E  E  E  E       H           E  E  E  E        E  E  E  E  E  E  E  E       E  E  Q     E  E  E  E     
E ||--------------------0-------|--------------0-------------||--1-----0-------------------|----------------------------|
B ||--3-----2-----3-------------|--6-----------6--6----------||--------------0-----1-------|--3-----------3-------------|
G ||o----0-----0-----0-----0----|--5-----------5-----5------o||-----0-----0----------------|--0-----------2-------------|
D ||o---------------------------|--0------------------------o||-----------------0-----0----|-----0-----------2-----0----|
A ||--2-------------------------|-----------------------0----||--0-------------------------|----------------------------|
E ||----------------------------|----------------------------||--------------3-------------|--1----(1)----3----(3)------|

                                                          
                                              ^                                                         ^
     E  E  E  E  E  E  E  E       H           E  E  E  E       E  E  E  E  E  E  E  E       H           E  E  E  E     
  |--------------------0-------|--------------0-------------|--------------------0-------|--------------0-------------|
  |--3-----2-----3-------------|--6-----------6--6----------|--3-----2-----3-------------|--6-----------6--6----------|
  |--2-----2--------------0----|--5-----------5-----5-------|--2-----2--------------0----|--5-----------5-------------|
  |-----0-----0-----0----------|--0-----------0-------------|-----0-----0-----0----------|--0-----------------0-------|
  |--2-------------------------|-----------------------0----|--2-------------------------|-----------------------0----|
  |----------------------------|----------------------------|----------------------------|----------------------------|

                                                         
                                  ^
     E  E  E  E  E  E  E  E       E  E  E  E  E  E  E  E       E  E  E  E  E  E  E  E       E  E  E  E  E  E  E  E     
  |--1-----0-------------------|----------------------------|--1-----0-------------------|----------------------------|
  |--1-----1-----0-----1-------|--3-----------3-------------|--1-----1-----0-----1-------|--3-----------3-------------|
  |--------------0-------------|--0-----------0-------------|--------------0-------------|--0-----------2--------0----|
  |-----------------0-----0----|-----0-----0-----0-----0----|-----------------0-----0----|-----0-----------2----------|
  |--0--0-----0----------------|----------------------------|--0--0-----0----------------|----------------------------|
  |--------------3-------------|--1-----1-----------1-------|--------------3-------------|--1-----1h(0)-3-----3-------|

                                                          
                                                                                            ^
     E  E  E  E  E  E  E  E       E  E  E  E  E  E  E  E       E  E  E  E  E  E  E  E       W                          
  |--0-----------------0-------|--0-----------0-----3h(0)---|--3-----2-----5-----3--Ls---|--6-------------------------|
  |--3-----2-----3-------------|--------3-------------------|--5-----3-----------3--Ls---|--6-------------------------|
  |--2--------------------0----|-----------0-----0-----0----|-----0-----0-----3----------|----------------------------|
  |-----0-----0-----0----------|-----0----------------------|--2-------------------------|--8-------------------------|
  |--2-------------------------|--3-----------3-------------|----------------------------|----------------------------|
  |----------------------------|----------------------------|--------------3-------------|--6-------------------------|

 
                                              ^                                             ^           ^
     E  E  E  E  E  E  Q          E  E  E  E  E  E  E  E       E  E  E  E  E  E  Q          E  E  E  E  E  E  E  E     
  |--------------------0-------|--------------0-------------|--------------------0-------|--0-------------------------|
  |--3-----2-----3-----2-------|--6-----------6--6----------|--3-----2-----3-----2-------|--6-----------6-------------|
  |--4-----2-----4-------------|--5-----------5-----5-------|--4-----2-----4-------------|--5-----------5--5----------|
  |-----0-----0-----0----------|--0-(0)---(0)---------------|-----0-----0-----0----------|--0-(0)---(0)-0-----0-------|
  |--2-------------------------|-------(0)-------------0----|--2-------------------------|-------(0)-------------0----|
  |----------------------------|----------------------------|----------------------------|----------------------------|

                                                       
                                              ^
     E  E  E  E  E  E  E  E       E  E  Q     E  E  E  E       E  E  E  E  E  E  E  E       E  E  E  E  E  E  E  E     
  |--5-----3-----------0-------|--1-----------0-------------|--5-----3-----------0-------|--1-------------------------|
  |--6-----5-----0-----1-------|--3-----------6--6----------|--6-----5-----0-----1-------|--3-----------3-------------|
  |-----0-----0--0-------------|--------------5-----5-------|-----0-----0--0-------------|----------------------------|
  |-----------------0-----0----|-----0----------------------|-----------------0-----0----|-----0-----0-----0----------|
  |--0-------------------------|-----------------------0----|--0-------------------------|----------------------------|
  |--------------3-------------|--1-----1-------------------|--------------3-------------|--1-----1-----------1h(0)---|

                                                         
                                  ^           ^                                             ^           ^  
     E  E  E  E  E  E  E  E       E  E  E  E  E  E  E  E       E  E  E  E  E  E  E  E       E  E  E  E  E  E  E  E     
  |--5-----3-----7-------------|--------------0-------------|--5-----3-------------------|--------------0-------------|
  |--6-----5-----0-------------|--3-----------3--3----------|--6-----5-----1-----3-------|--3-----------6--6----------|
  |-----0-----0--------5-------|--0-----------0-----0-------|-----0-----0----------------|--0-----------5-------------|
  |--0--------------0-----0----|-----0-----0-----------0----|--0--------------0-----0----|-----0-----0-----------0----|
  |--------------0-------------|----------------------------|----------------------------|----------------------------|
  |----------------------------|--3-----3-----3-------------|--------------1-------------|--3-----3-----------3-------|

                                                                                                        ^
                                                                                                        |-3-| 
     E  E  E  E  E  E  E  E       E  E  E  E  E  E  E  E       E  E  E  E  E  E  E  E       E  E  E  E  S S S E  E  E     
  |--------------------0-------|--------------------0-------|--------------------0-------|--3-----2-----0h2p0------------|
  |--3-----2-----3-------------|--3-----2-----3-------------|--3-----2-----3-------------|--5-----3-----3-----3-----2----|
  |-----0-----0-----0-----0----|-----0-----0-----0-----0----|-----0-----0-----0-----0----|-----0-----0--0--------0-------|
  |----------------------------|----------------------------|----------------------------|-------------------------------|
  |--2-------------------------|----------------------------|--0-------------------------|-------------------------------|
  |----------------------------|----------------------------|----------------------------|--0-----------0----------------|

                                                          
                                                                                            ^
     E  E  E  E  E  E  E  E       E  E  E  E  E  E  E  E       E  E  E  E  E  E  E  E       W                          
  |--------------------0-------|--------------------0-------|--------------------0-------|--3L------------------------|
  |--3-----2-----3-------------|--3-----2-----3-------------|--3-----2-----3-------------|--5L------------------------|
  |-----0-----0-----0-----0----|-----0-----0-----0-----0----|-----0-----0-----0-----0----|----------------------------|
  |----------------------------|----------------------------|----------------------------|--2L------------------------|
  |--2-------------------------|----------------------------|--0-------------------------|----------------------------|
  |----------------------------|----------------------------|----------------------------|--0L------------------------|

   

     W                           
  |--L-------------------------||
  |--L-------------------------||
  |----------------------------||
  |--L-------------------------||
  |----------------------------||
  |--L-------------------------||

Login or Register to remove this ad.

4 comments on Just Inside

Ohh gosh, I like it !!!

5

It sounds like a bewitchment theme, and a gorgeous one :D
Volume variation seems important according the ost, listen it to get the dynamic :
http://www.youtube.com/watch?v=pww3Ki91ygM

From memory the games story

5

From memory the games story isn't far off of a man being bewitched by a woman, and yea the build ups and quiet parts really do make the piece :3

Amazing work

5

Very beautiful, thank you for sharing it!

Edit:
Me playing this beautiful song
https://soundcloud.com/mickegitarr/anna-not-welcome

Very well played sir c;

Very well played sir c;