Ads

Amore Ultima Volta (Anna) Guitar Tab

Submitted: Dec 23, 2013 by scarecrowlol

5
Average: 5 (2 votes)
Download | Listen
Game: Anna
Composer(s): Alessandro Monopoli
Style: Arrangement, Fingerstyle

AutoScroll: Slow | Medium | Fast
Title: Amore Ultima Volta
SubTitle: Anna Extended Edition
Artist: Alessandro Monopoli
Tabber: Mitch Jackson
Tempo = 84
T/S = 6/4


T = Tap


                                                                                        ^                 ^ 
      E  E  E  E  E  E  E  E  E  E  E  E       E  E  E  E  E  E  E  E  E  E  E  E       E  E  E  E  E  E  E  E  S S E  E  E     
E ||-----------0-----------------0----------|-----------0-----------------0---------||--1--------1-----0--0-------0------------|
B ||--------3-----3-----------3-----3-------|--------------3-----------------3------||--3--------3--------3---------1----------|
G ||o----2-----------2-----2-----------0----|--------0--------0-----------------0--o||--2--2--------2-----2--2---------2-------|
D ||o-3-----------------3-------------------|-----2--------------------0-----------o||--0-----0-----------0-----0---------0----|
A ||----------------------------------------|--3--------------------2---------------||-----------------------------------------|
E ||----------------------------------------|--------------------3------------------||-----------------------------------------|

                                         
                       ^                      ^                       ^   ^                             ^        ^  |-3-|
     E  E  E  E  E  E  E  E  E  E  E  E       E  E  E  E  E  E  E  E  E.  E.  E       E  E  E  E  E  E  E  E  E  E  S S S E     
  |-----------0-----------------0----------|--1--------1-----0--0-----3---1---0----|-----------0-------------------------------|
  |--3--------------1--3-----------3-------|--3--------3--------1-----1---1--------|--3--------------1--3--------1--0-1-0------|
  |-----0--------0-----0--------------0----|--2--2-----------------0------0--------|--------------0--------------0--------0----|
  |--------------------0--0----------------|--0-----0-----------------0------------|-----0--------------0--0-----0-------------|
  |--3-----3----------(2)------------------|--------------0-----0------------------|--3-----3-----------2----------------------|
  |--------------------3-----3-------------|-----------------0------------1--------|--------------------3-----3----------------|

                      
     ^                 ^                                        ^                      ^                       ^   ^ 
     E  E  E  E  E  E  E  E  E  E  E  E       E  E  E  E  E  E  E  E  E  E  E  E       E  E  E  E  E  E  E  E  E.  E.  E     
  |--1--------1-----0--0-------------------|-----------0-----------------0----------|--1--------1-----0--0-----3---1h--0----|
  |--3--------3--------3--------1----------|--3--------------1--3-----------3-------|--3--------3--------1-----1---1--------|
  |--2--2--------2-----2--2--------2-------|-----0--------0--------------------0----|--2--2-----------------0--0---0--------|
  |--0-----0-----------0-----0--------0----|--------------------0--0----------------|--0-----0-----------------0------------|
  |----------------------------------------|--3-----3-----------2-------------------|--------------0-----0------------------|
  |----------------------------------------|--------------------3-----3-------------|-----------------0------------1--------|

                                       
                       ^        ^  |-3-|                                                                    ^
     E  E  E  E  E  E  E  E  E  E  S S S E       E  E  E  E  E  E  E  E  E  E  E  E       E  E  E  E  E  E  H.
  |-----------0-------------------------------|-----------0-----------------0----------|-----------0--------0-------------------|
  |--3--------------1--3--------1--0-1-0------|--------3-----3-----------3-----3-------|--------3-----3-----3-------------------|
  |--------------0--------------0--------0----|-----2-----------2-----2-----------2----|-----2-----------2--2-------------------|
  |-----0--------------0--0-----0-------------|--3-----------------3-------------------|--3-----------------3-------------------|
  |--3-----3-----------2----------------------|----------------------------------------|----------------------------------------|
  |--------------------3-----3----------------|----------------------------------------|----------------------------------------|


     ^                 ^                                                               ^                 ^    
     E  E  E  E  E  E  E  E  E  Q.            E  E  E  E  E  E  E  E  E  Q.            E  E  E  E  E  E  E  E  E  E  E  E     
  |--0-----------------0--------1----------|--3-----------------0-------------------|--0-----------------5-------------------|
  |-----------3--------1--------1----------|-----------3----------------------------|-----------3--------5-------------------|
  |--2--2--------------0--0----------------|-----0----------------------------------|--2--2--------------5--------5----------|
  |--0-----0-----0-------------------------|--------------0--------0----------------|--0-----0-----0--------5--------5-------|
  |-----------------0--0-----0-------------|--3-----3--------3--------3L-L----------|-----------------0--0-----0-------------|
  |----------------------------------------|----------------------------------------|----------------------------------(0)---|

                                         
     ^        ^        ^                      ^                 ^                                        ^     T     T
     E  E  E  Q.       H.                     E  E  E  E  E  E  E  E  E  E  E  E       E  E  E  E  E  E  Q     E  E  E  E     
  |-----------0--------3-------------------|--0-----------------0--------1----------|--3-----------------10----15-10---------|
  |--0--------0--------0-------------------|-----------3--------1-----------1--0----|-----------3--------8-----------13-8----|
  |--0--0-----0--------0-------------------|--2--2-----------------0----------------|-----0--------------7-------------------|
  |--2-----2-(2)------(2)------------------|--0-----0-----0-------------------------|--------------0-------------------------|
  |----------------------------------------|-----------------0--0-----0-------------|--3-----3--------3----------------------|
  |--0-------------------------------------|----------------------------------------|----------------------------------------|

              
                       ^                                        ^              Ferm             ^                 ^ 
     E  E  E  E  E  E  E  E  E  E  E  E       E  E  E  E  E  E  Q     E  E  E  E       E  E  E  E  E  E  E  E  E  E  E  E     
  |--0-----------------0-------------------|----------------------------------------|-----------0-----------------0----------|
  |-----------3--------1--------1----------|-----------1--------1--------0----------|--------3--3--3-----------3--3--3-------|
  |-----2--------2-----2--2--------0-------|--2-----------------0--------0----------|-----2-----2-----2-----2-----2-----0----|
  |--0-----0--------0----------------------|-----0--------0-----0-----------0-------|--3-------(3)-------3-------(3)---------|
  |--------------------0-----0-------------|----------------------------------------|----------------------------------------|
  |-----------------------------------0----|--1-----1--------0--3-----3--------3----|----------------------------------------|

                                       
              ^                 ^                      ^                 ^                      ^                 ^  
     E  E  E  E  E  E  E  E  E  E  E  E       E  E  E  E  E  E  E  E  E  E  E  E       E  E  E  E  E  E  E  E  E  E  E  E     
  |-----------0-----------------0----------|-----------0-----------------0----------|-----------0-----------------0----------|
  |-----------3--3--------------3--3-------|--------3--3--3-----------3--3--3-------|-----------3--3--------------3--3-------|
  |--------0--0-----0-----------0-----0----|-----2-----2-----2-----2-----2-----0----|--------0--0-----0--------0--0-----0----|
  |-----2--------------------0-------------|--3-------(3)-------3-------(3)---------|-----2----------------------------------|
  |--3-------(3)----------2----------------|----------------------------------------|--3-------(3)----------2----------------|
  |--------------------3-------(3)---------|----------------------------------------|--------------------3-------(3)---------|
            

     ^                 ^                               ^        ^        ^             ^                       ^   ^   
     E  E  E  E  E  E  E  E  E  E  E  E       E  E  E  E  E  E  E  E  E  E  E  E       E  E  E  E  E  E  E  E  E.  E.  E     
  |--1--------1-----0--0-------------------|-----------0-----------------0----------|--1--------1-----0--0-----3---1h--0----|
  |--3--------3--------3--------1----------|--3--------3-----1--3--------3--3-------|--3--------3--------1-----1---1--------|
  |--2-----2-----2-----2--2--------2-------|--------0-----0-----0-------(0)----0----|--2--2------------------------0--------|
  |--0--0--------------0-----0--------0----|-----0-----------------0----------------|--0-----0--------------3-(3)-----------|
  |----------------------------------------|--3--------3----------------------------|--------------0------------------------|
  |----------------------------------------|--------------------3-----3-------------|-----------------0--1---------1--------|

                    
              ^        ^        ^             ^                 ^                      ^                 ^  
     E  E  E  E  E  E  E  E  E  E  E  E       E  E  E  E  E  E  E  E  E  E  E  E       E  E  E  E  E  E  E  E  E  E  E  E     
  |-----------0-----------------0----------|--1--------1-----0--0-------------------|-----------0-----------------0----------|
  |--3--------3-----1--3--------3--3-------|--3--------3--------3--------1----------|--3--------------1--3-----------3-------|
  |-----0--------0-----0--------0-----0----|--2-----2-----2-----2--2--------2-------|--0-----------0-----0--------------0----|
  |--------------------0--0----(0)---------|--0--0--------------0-----0--------0----|-----0--------------0--0----------------|
  |--3-----3-------------------------------|----------------------------------------|--3-----3-------------------------------|
  |--------------------3-----3-------------|----------------------------------------|--------------------3-----3-------------|

                                                                                        SLOWLY FADE OUT ---->
     ^                       ^   ^                             ^        ^  |-3-|      
     E  E  E  E  E  E  E  E  E.  E.  E       E  E  E  E  E  E  E  E  E  E  S S S E       E  E  E  E  E  E  E  E  E  E  E  E     
  |--1--------1-----0--0-----3---1h--0----|-----------0-------------------------------|-----------0-----------------0----------|
  |--3--------3--------1-----1---1--------|--3--------------1--3--------1--0-1-0------|--------3-----3-----------3-----3-------|
  |--2--2--------------------0---0--------|--------------0-----0--------0--------0----|-----2-----------2-----2-----------2----|
  |--0-----0--------------3---------------|-----0--------------0--0-----0-------------|--3-----------------3-------------------|
  |--------------0------------------------|--3-----3----------------------------------|----------------------------------------|
  |-----------------0--1---------1--------|--------------------3-----3----------------|----------------------------------------|



     E  E  E  E  E  E  E  E  E  E  E  E       E  E  E  E  E  E  E  E  E  E  E  E       E  E  E  E  E  E  E  E  E  E  E  E     
  |-----------0-----------------0----------|-----------0-----------------0----------|-----------0-----------------0----------|
  |--------3-----3-----------3-----3-------|--------3-----3-----------3-----3-------|--------3-----3-----------3-----3-------|
  |-----2-----------2-----2-----------2----|-----2-----------2-----2-----------2----|-----2-----------2-----2-----------2----|
  |--3-----------------3-------------------|--3-----------------3-------------------|--3-----------------3-------------------|
  |----------------------------------------|----------------------------------------|----------------------------------------|
  |----------------------------------------|----------------------------------------|----------------------------------------|



     W.
  |--L-------------------------------------||
  |--L-------------------------------------||
  |--L-------------------------------------||
  |--L-------------------------------------||
  |----------------------------------------||
  |----------------------------------------||
Login or Register to remove this ad.

1 comment on Amore Ultima Volta

wow !

5

A work of art. Thanks to share it :)