Ads

Suna No Hoshi (Sandy Planet) (Trigun) Guitar Tab

Submitted: Nov 19, 2008 by ExE (Last updated: Jul 06, 2013)

5
Average: 5 (7 votes)
Download | Listen
Game: Trigun
Composer(s): Tsuneo Imahori
Style: Fingerstyle, Transcription

AutoScroll: Slow | Medium | Fast
Suna no Hoshi (Sandy Planet)
Trigun OST - 2nd Donuts
Music by Tsuneo Imahori
Tabbed by ExE


--> Drop D tuning, capo on 2nd fret



-2--0--3---2--0--3---------------2-----5---3---10----2-----0------------------------
-3--3--3---3--3--3-----------3------2------0---------3-----0--------3---------------
-------------------0------2--------------------------------------0--0---------------
--------------------------------------------------------------0---------------------
------------------------------------------------------------------------------------
-0-----0---0-----0----0--------------------0---------------5-----------5------------


-2--0--3-----2-0--3---------------2----------------------------------------2--2-----
-3--3--3----3--3--3-----------3-------2---------0------2---0------2--2--5-----------
--------------------0------2-------------2------0------2---0------2--3--2--3--3--3--
-----------------------0---------------------------0----------0------------0--------
------------------------------------------------------------------------------1-----
-0-----0----0-----0-----------------------------5----------5---------4--2--0--------


-2--7--2--2--2--0--9--5-----0-------------------------3---3-------------------------
-------5--3--2-----------2-------------------------0-----------------------1--------
----0-----------------0--------2----2--0--0--0--0--0--0---0---0--0--0---3-----------
------------------------------------0--0--0--4--2--1--0----------1--1---------------
------------------------------------------------------------------------------------
------------------------------------4--2----------------0h1---------1---------------


---0--------0------------2---3--2--3p2p0--------10--7-----0---2--5--3--2-----------------------
-2--------2--------3--5------3--3----------3-----8--8---3-----3--3--3--3------5--3-------3-----
-2--------2--------2--2--3----------------------------------------------------2--2-----2-------
-------------------------------------------------------------------------------------4-------4-
-------------------0---0--0--1---1-----1/2-2-------------------0--0--0--0--0---0---------------
-0---0----0---0------------------------------------------------------------------0-----------0-


-----------2-0-------------2-0-------------5-2--10-7--2-0---------------------------
-0-0--3-2--3-3---0-0--3-2--3-3---3----5-3--3-3--10-7--3-3--0-0----------------------
-2-0--0-0--------2-0--0-0--------2-2--2-2------------------2-0----------------------
------------------------------------------------------------------------------------
------------------------------------------------------------------------------------
-5---------------5---------------0--------------------------------------------------


-----------2-0-------------2-0-------------2-5--14-12-10--7-5-----------------------
-0-0--3-2--3-3---0-0--3-2--3-3---3----3-5--3-3--------------------------------------
-2-0--0-0--------2-0--0-0--------2-2--2-2-------------------0-----------------------
------------------------------------------------------------------------------------
------------------------------------------------------------------------------------
-5---------------5---------------0--------------------------------------------------


-2-5-3--2-----2-3-2---2-----2-3-2---2-----2-3-2---2-----2-5-3---3-----3-2-3---3-----3-10-8-
---3-3------3-------------3-------------3-------------3-------------3-------------3--------
----------0-------------0-------------0-------------0-------------0-------------0----------
-------------------------------------------------------------------------------------------
--------3-------------3-------------2-------------2-------------1-------------1------------
-------------------------------------------------------------------------------------------


-8-6-3----------------------------0-2-------3--2--------5--5------------------------
-------3-4-3--------------------3---------------------------------------------------
-------------3-0--------------2-----3---3------4---4-------3------------------------
-----------------3-----1-0------0-----0---0------0---0------------------------------
-6-----------------1---1----0-------------------------------------------------------
---------------------1---0----------0----------0-----------0------------------------


-12-----14-----10----5----9-----12-----14-----10----5----5--------------------------
----10-----8------7----3----8------10-----10-----7----3-----------------------------
--------------------------0------------------------------2--------------------------
-12-----10-----8-----7----------12-----10-----8-----7-------------------------------
------------------------------------------------------------------------------------
------------------------------------------------------------------------------------


-2--0--3---2--0--3---------------2-----5---3---10----2-----0------------------------
-3--3--3---3--3--3-----------3------2------0---------3-----0--------3---------------
-------------------0------2--------------------------------------0--0---------------
--------------------------------------------------------------0---------------------
------------------------------------------------------------------------------------
-0-----0---0-----0----0--------------------0---------------5-----------5------------


-2--0--3----2--0--3---------------2----------------------------------------2--2-----
-3--3--3----3--3--3-----------3-------2---------0------2---0------2--2--5-----------
--------------------0------2-------------2------0------2---0------2--3--2--3--3--3--
---------------------------------------------------0----------0------------0--------
------------------------------------------------------------------------------1-----
-0-----0----0-----0----0------------------------5----------5---------4--2--0--------


-2--7--2--2--2--0--9--5-----0-------------------------3---3-------------------------
-------5--3--2-----------2-------------------------0-----------------------1--------
----0-----------------0--------2----2--0--0--0--0--0--0---0---0--0--0---3-----------
------------------------------------0--0--0--4--2--1--0----------1--1---------------
------------------------------------------------------------------------------------
------------------------------------4--2----------------0h1---------1---------------


---0--------0------------2---3--2--3p2p0--------10--7-----0---2--5--3--2-----------------------
-2--------2--------3--5------3--3----------3-----8--8---3-----3--3--3--3------5--3-------3-----
-2--------2--------2--2--3----------------------------------------------------2--2-----2-------
-------------------------------------------------------------------------------------4-------4-
-------------------0---0--0--1---1-----1/2-2-------------------0--0--0--0--0---0---------------
-0---0----0---0------------------------------------------------------------------0-----------0-



Well well, my very first own tab!
Great little song, but kinda hard to tab (for me).

And finally complete! :D
I hope you'll enjoy and feel free to comment or mail to murmelman(at)lycos.com
Login or Register to remove this ad.

4 comments on Suna No Hoshi (Sandy Planet)

Mymy, how come no one has

Mymy, how come no one has replied to/rated this one? It's amazing ^^

Suggestion

If you change the beginning of the first measure (and any other measures that apply) into the following it sounds a lot more accurate.

e)-2--0--3---2--0--3-----------------------------
B)-3--2--0---3--2--0----------------------7----
G)------------------------0----------------------6---
D)-------------------------------------12)---------
A)---------------------------------12)--------------
D)-0-----------0-------------0--------------------

the ")" next to a number indicate harmonic notes.

And the second half of the same measure can be replaced with this (also to any measures that apply)

e)-5---3---10----2-----0---------------------------
B)-----0-----------3-----0---------------------0-----
G)----------------------------------0-----------0-----
D)------------------------------0-------12)-----------
A)---------------------------------------12)-----------
D)-----0------------------5---------------------5------

you're right, sounds good.

you're right, sounds good. but i'm just getting into harmonics, so i'm leaving the tab as it is and keep your suggestion as an option.

Needs work

If you can read music, this might be able to help you make some more accurate tabs.

http://paul.rutgers.edu/~jasmuth/suna_no_hoshi.pdf