Ads

Tensaiwa Saigoni Yattekuru (Those Who Hunt Elves) Guitar Tab

Submitted: Sep 29, 2007 by daniellu14

5
Average: 5 (6 votes)
Download | Listen
Game: Those Who Hunt Elves
Composer(s): Naoko Hamasaki
Style: Transcription

AutoScroll: Slow | Medium | Fast
Verse
e--5-5-5-2--5-5-5-5--0--0--3--2--0-
B------------------3-----------------
G----------------------------------
D----------------------------------
A----------------------------------
E----------------------------------

e-----0-2-2-------0-2-2----3-2-------
B-3-3---------3-3--------------3--0-0-
G--------------------------------------2
D----------------------------------
A----------------------------------
E----------------------------------

e--5-5-5-2--5-5-5-5--0--0--3--2--0-
B------------------3-----------------
G----------------------------------
D----------------------------------
A----------------------------------
E----------------------------------

e-----0-2-2-------0-2-2----3-2-0-----5--0-0-
B-3-3---------3-3-----------------3--------
G-----------------------------------------
D-----------------------------------------
A-----------------------------------------
E-----------------------------------------

e--3-3--2--0------2---3-3-3--5-2-0-----0------5-5
B-------------3----------------------3----3-3------
G------------------------------------------------
D------------------------------------------------
A------------------------------------------------
E------------------------------------------------

Chorus
e-5--5-5--10-9-7-5----2-3-5--5-5--2-3-5-2--
B-----------------------------------------
G-----------------------------------------
D-----------------------------------------
A-----------------------------------------
E-----------------------------------------

e---0-2--2-2-2--5-2-2-2-3--3-2----------0-0-
B-3-----------------------------3-3---
G------------------------------------
D-----------------------------------------
A-----------------------------------------
E-----------------------------------------

e-5--5-5--10-9-7-5----2-3-5--5-5--2-3-2---
B---------------------------------------3---
G-----------------------------------------
D-----------------------------------------
A-----------------------------------------
E-----------------------------------------

e-----3-3-2-------0---5-0-0--5-5-3-2-0--
B-0-3-------3-3-----3------------------3-3
G---------------------------------------
D-----------------------------------------
A-----------------------------------------
E-----------------------------------------

*Note this is just what you see on TV. As in, no full song. It's missing the
wooing in the very beginning. Don't know how to imitate that effect on
guitar. Sorry. It's my first tab.
Login or Register to remove this ad.