God Knows (Suzumiya Haruhi no Yuutsu) Guitar Tab

Submitted: Jan 31, 2009 by TrangOul (Last updated: Sep 19, 2009)

5
Average: 5 (13 votes)
Download | Listen
Game: Suzumiya Haruhi no Yuutsu
Composer(s): Satoru Kousaki
Style: Arrangement, Fingerstyle

AutoScroll: Slow | Medium | Fast
'God Knows'
From 'Suzumiya Haruhi no Yuutsu'
Originally composed by Satoru Kousaki
Arranged by Marcus Kasperski

Dropped D Tuning | Capo 4

Allegro

     E  E  E  S E  S E  E  E     E  E  E  S E  S E  E  E   
E||--0------------------------|--0------------------------|
B||--------3----1----3--1--3--|--------3---------3-----3--|
G||---------------------------|-------------5-------5-----|
D||-----3-----3----3----------|-----0-----0----0----------|
A||---------------------------|---------------------------|
D||--3------------------------|--5------------------------|


  E  E  E  S E  S E  E  E     E  E  E  E  E  E  E  E   
--0------------------------|--------------------------|
--------3----1----3--1--0--|--0--1--0-----------0--1--|
---------------------------|-----------0-----2--------|
-----2-----2----2----------|--------------------------|
---------------------------|--0-----------0-----------|
--2------------------------|--------------------------|


  E  E  E  S E  S E  E  E     E  E  E  S E  S E  E  E   
--0------------------------|--0------------------------|
--------3----1----3--1--3--|--------3---------3-----3--|
---------------------------|-------------5-------5-----|
-----3-----3----3----------|-----0-----0----0----------|
---------------------------|---------------------------|
--3------------------------|--5------------------------|


  E  E  E  S E  S E  E  E     E  E  E  S E  S E  E  E   
--0----------0-------0-----|--0----------0-------0-----|
--------3---------3--------|--------1---------1--------|
-----2-----2----2-------2--|-----2-----2----2-------2--|
---------------------------|---------------------------|
--0------------------------|--0------------------------|
---------------------------|---------------------------|


  E  E  E  S E  S E  E  E     E  E  E  S E  S E  E  E   
--0------------------------|--0------------------------|
--------3----1----3--1--3--|--------3---------3-----3--|
---------------------------|-------------5-------5-----|
-----3-----3----3----------|-----0-----0----0----------|
---------------------------|---------------------------|
--3------------------------|--5------------------------|


                  |-3-|                                   
  E  E  E  S E  S S S S E  E     E  E  E  E  E  E  E  E   
--3-----3----3----3-1-0----0--|--------------------------|
------------------------3-----|--1--3--0--1--------0--1--|
------------------------------|-----------------2--------|
-----2-----2----2-------------|--------------------------|
------------------------------|--0-----------0-----------|
--2---------------------------|--------------------------|


  E  E  E  S E  S E  E  E     E  E  E  S E  S E  E  E   
--0------------------------|--0------------------------|
--------3----1----3--1--3--|--------3---------3-----3--|
---------------------------|-------------5-------5-----|
-----3-----3----3----------|-----0-----0----0----------|
---------------------------|---------------------------|
--3------------------------|--5------------------------|


  E  E  E  S E  S E  E  E     E  E  E  Q.     Q       Q    E  S H        S  
--0----------0-------0-----|-----------------------|-----------------------|
--------3---------3-----3--|--2--3--2--------------|--1----1--0-1--------L-|
-----2-----2----2----------|-----------2-----------|--2--------------------|
---------------------------|-----------------------|-----------------------|
--0------------------------|--0--------------------|--0--------------------|
---------------------------|-----------------------|-----------------------|


  E  E  E  E  E  E  E  E     Q    E  S H        S    Q    E  Q    E  Q     
--------------------------|-----------------------|-----------------------|
-----------1--3--1--0--1--|--0----0----0--------L-|--0---------------0----|
--------2--------------2--|--0-------5------------|--0----0-------0-------|
-----2--------------------|-----------------------|----------0------------|
--0-----------------------|-----------------------|-----------------------|
--------------------------|--5--------------------|--5--------------------|


  Q    E  S H        Q    S    Q.     E  E  E  E  E     E.  E.  Q.     E  E   
----------------------------|------------------------|------0---0---------1--|
--1----1--0-1-------------L-|------------3-----3-----|--3---1---1------------|
--2-------------------------|---------0-----5-----5--|-----------------------|
----------------------------|------------------------|-----------------------|
----------------------------|------------------------|--3--------------3-----|
--3------------------3------|--5---------------------|-----------------------|


  Q    E  E  H           Q    E  S H        Q    S    E  E  E  E  E  E  E  E   
--0----------0--------|----------------------------|--------------------------|
-------3-----0--------|--1----1--0-1-------------L-|-----------1--3--1--0--1--|
--2-------2--1--------|--2-------------------------|--------2--------------2--|
--4----------2--------|----------------------------|-----2--------------------|
----------------------|--0------------------0------|--0-----------------------|
----------------------|----------------------------|--------------------------|


  Q    E  S H        S    E  E  E  E  H           Q    E  S H        Q    S  
-----------------------|-----------------------|----------------------------|
--0----0----0--------L-|--------------0--------|--1----1--0-1-------------L-|
--0-------5------------|--------0--------------|--2-------------------------|
-----------------------|-----0-----0-----------|----------------------------|
-----------------------|-----------------------|----------------------------|
--5--------------------|--5--------------------|--3------------------3------|


  Q.     E  E  E  E  E     E.  E.  H        E     E  E  E  E  E  E  E  E   
------------------------|------0---0--------L--|--------------0-----------|
------------3-----3-----|--3---1---1--------L--|-----------1--------1--3--|
---------0-----5-----5--|----------------------|--------0--------0--------|
------------------------|----------------------|-----2--------------------|
------------------------|--3-------------------|--3-----------------------|
--5---------------------|----------------------|--------------------------|


  Q    Q    Q    E  E     Q    E  E  E  E  E  E     Q    Q    Q    E  E   
--0--------------------|-------------3--1--0--1--|--0--------------0-----|
------------3----------|-------------1--------1--|--0---------3-------3--|
--2---------2-------2--|--L-------2--------------|--0---------0-------0--|
-----------------------|-------------------------|-----------------------|
-----------------------|-------------------------|-----------------------|
--3----3---------3-----|--3----3-----------L--3--|--2----2---------2-----|


  E  H        E  Q    E     E  E  E  S Q.     S S E     E  E  E  S E.  E  Q     
-------------------------|---------------------------|-------------------------|
--L-------------------1--|--1--0-----0-1--------L-1--|--1--0--1--3-1---1--3----|
-----0-------------------|--2-----2---------------2--|--2--------------2--2----|
-------------------------|---------------------------|-------------------------|
-------------------------|---------------------------|-------------------------|
--2-----------2----------|--0-----------------0------|--3-----------------3----|


  ^                                                                          
  Q    E  H        E     Q    Q    E  E  E  E       E  E  E  S E.  E  E  E   
--0----1--0-----------|---------------0-----0--||---L--------------0-----0--|
--0-------------------|-------1----3--1-----1--||---L--3--3--1-3---1-----1--|
--2-------------------|------------------------||*-----2--2-----------------|
----------------------|------------------------||*--------------------------|
----------------------|------------------------||---------------------------|
--2-------------------|--2---------------L--2--||---3-----------------L--3--|


  E  E  E  S E.  Q    E     E  E  E  E  E  E  E  E     E  Q    Q    E  E  E   
--L--------------0----3--|--L--0--3--3-----0--3--5--|--L------------0--------|
--L--3--3----3--------0--|--L-----0--0--------0-----|-----5----3-------3--1--|
-----4--4--5-----5-------|--------------------------|-----5------------2-----|
-------------------------|--------------------------|------------------------|
-------------------------|--------------------------|--0---------------------|
--5----------------------|--2-----------2-----------|------------------------|


                                               1________________________
  Q    E  E  Q    E  E     Q    Q    Q    Q    |  Q    Q    E  E  E  E   
----------0----------0--|-------0----3---------|---------------------0--|
---------------------0--|--3--------------3----|--3---------L--1--3-----|
--2---------------------|--4---------4---------|--2---------L--------3--|
--3---------------------|----------------------|--2---------L-----------|
------------------------|----------------------|--0----0----0-----------|
--0----0-----0----0-----|--2---------2---------|---------------------5--|


                         2_____________________        ^                
  Q    Q    E  Q    E    |  Q.     H        E     Q    Q    E.  E.  E   
--L------------0----0---||---------------------|-------0---------------|
-------1----3--1----1---||--3------1--------L--|-------0----3----------|
--L--------------------*||--4------2--------L--|-------0--------5---4--|
-----------------------*||---------------------|-----------------------|
------------3-----------||---------------------|-----------------------|
--L---------------------||--3------3--------L--|--5--------------------|


                                       Da capo
  W                   H.           E  E       Q    E  Q    Q    E   
-------------------|---------------------||----------------0-------|
--0----------------|---------------------||------------------------|
-------------------|--2---------------0--||*--2----0--2---------0--|
--2----------------|--2------------------||*--3--------------------|
-------------------|--0------------------||------------------------|
--2----------------|---------------------||---3--------------------|


  Q    E  Q    E  E  E     Q    E  Q    E  E  E     E  Q    Q    E  E  E   
------------------------|---------------0-----3--|--L--1----0-------------|
------------------0-----|------------------------|---------------3--1--3--|
--2-------2----------0--|--2----0--2----------0--|--L---------------2-----|
-------2-------2--------|------------------------|------------------------|
------------------------|------------------------|------------------------|
--3---------------------|--2---------------L--2--|--L---------------2-----|


1______________________
  H        E  E  E  E     Q    E  Q    E  E  E     E  E  H.            
-----------------------|------------------------|---------------------|
--------------------1--|--0----1--3----0-----0--|--L--1--1------------|
--2--------------2-----|--0---------------------|-----2--2------------|
--0-----------2--------|------------------------|---------------------|
-----------------------|---------------------0--|--L------------------|
--0--------0-----------|--2---------------L-----|---------------------|


                            2____________________
  E  E  E  E  E  E  E  E    |  H.           Q       Q    Q    Q    Q     
--0------------------------||--5-----------------|-------5----5----5----|
--------1--3--------1------||--------------------|----------------------|
-----0-----------0-----0--*||--------------------|-------5----5----5----|
--------------0-----------*||--------------------|----------------------|
--3--------2--------0------||---------------0----|----------------------|
---------------------------||--0-----------------|--3-------------------|


  Q    Q    E  E  E  E     W                   Q    Q    E  E  E  E   
--5------------4--5--4--|--L----------------|---------------0--------|
--5------------------0--|--L----------------|-------1----3--1--------|
------------------------|-------------------|------------------------|
------------------------|-------------------|------------------------|
------------------------|-------------------|------------------------|
--2----2----2--------2--|--L----------------|--2---------------L--2--|


  Q    Q    E  E  E  E       E  E  E  S E.  E  E  E     E  E  E  S E.  Q    E   
------------0--2-----2--||---L--0--0----0---2-----2--|--L--0--0----0---2----5--|
-------3-------3-----3--||---L--0--0--3-----3-----3--|--L--2--2--3-----3-------|
------------------------||*--------------------------|----------------------6--|
------------------------||*--------------------------|-------------------------|
------------------------||---------------------------|--0----------------------|
--4---------------L--4--||---5-----------------L--5--|-------------------------|


  E  E  E  E  E  E  E  E     E  Q    Q    E  E  E     Q    E  E  Q    E  E   
--L-----5--5--------5--7--|--L--2----0----2--0-----|----------2----------2--|
-----7-----------7--------|-----3------------0--3--|--0------------------2--|
--L-----6--6--------6-----|------------------------|--0---------------------|
--------------------------|------------------------|------------------------|
--------------------------|--2---------------------|------------------------|
--4-----------4-----------|------------------------|--2----2-----2----2-----|


  Q    Q    Q    Q       Q    Q    E  E  E  E     Q    Q    E  Q    E     
--0----2----5----0----|--0---------L-----0--2--|--L---------0--2----2---||
--2---------2---------|--0---------L--3-----1--|--L----3-------3----3---||
----------------------|------------------------|-----------------------*||
----------------------|--4---------L-----------|------------0----------*||
----------------------|--2----2----2--------0--|--L---------------------||
--4---------4---------|------------------------|------------------------||


                             ^                                    
  Q.     H        E     Q    Q    E.  E.  E     W                 
--0------------------|-------2----0----------|-------------------|
--2------3--------L--|-------2--------3---2--|--2----------------|
---------4--------L--|-------2---------------|-------------------|
---------------------|-----------------------|--4----------------|
---------------------|--0--------------------|-------------------|
--5------5--------L--|-----------------------|--4----------------|


  W                  
-------------------||
-------------------||
--4----------------||
--4----------------||
--2----------------||
-------------------||




Duration Legend
---------------
W - whole
H - half
Q - quarter
E - 8th
S - 16th
. - note dotted
|-n-|  - n-tuplets


Tablature Legend
----------------
L - tied note
^ - brush up
Login or Register to remove this ad.

23 comments on God Knows

amazing

This is remarkable, let alone i'm horrible with past attempts at tabs for this song. Bravo.

F**CK yeah I love this song .

5

F**CK yeah I love this song . Awsome Tab

Excellent !

5

Excellent !

O_O Now I REALLY wish I could

O_O Now I REALLY wish I could finger pick....THIS SOUNDS AMAZING! And here I've been trying to learn the actual tab for this song. As soon as I get done picking my jaw up off the floor and finding my mind that was blown away, I'm learning this.

Ever since I finished this

Ever since I finished this song I've been wondering whether I should try and focus more on Anime soundtrack. People seem to like those. ;D

anime

yeah i think you should focus on anime soundtrack

Great! let's see "lost my

12.75

Great! let's see "lost my music" next!

Lost my music

hey i got lost my music tabs this ver.
http://www.youtube.com/watch?v=UND-6tcKDvw&feature=related
and god knows this ver
http://www.youtube.com/watch?v=TJpOpY8FkV4

*deleted my e-mail cause of spam.

rashidogan, can you give me

rashidogan, can you give me the tabs for both of those? been looking for forever for those tabs. T.T

hey ive just posted lost my

hey ive just posted lost my music in here i just dont know if ther will approve that.... -.- just wait... and pray that they will...

they said no :( but heres the

tnx very much dude!

tnx very much dude!

Awesome!!! Yea - "Lost my

5

Awesome!!!
Yea - "Lost my music" would be great!

Mikuru no Kokoro

Could you please tab this? http://www.youtube.com/watch?v=zw5a-9Ev7nk&feature=PlayList&p=FD64C4A64D...

It's mikuru no kokoro from the melancholy of haruhi suzumiya.

ThX~

You play the tabs differently

You play the tabs differently in the video trang? It sounds better imo..

So isn't there a second part?

So isn't there a second part? or is this it because it doesn't look like the parts played by the second guitar...

What kind of second part

What kind of second part would that be?
This is the whole song and it's a solo arrangement.

The Part Played by Yuki Nagato

the part that is played by Yuki Nagato... I mean it is defiantly there...(this is god knows right?) Part's I mentioned http://tabs.ultimate-guitar.com/a/aya_hirano/god_knows_tab.htm?utm_expid... Supposed to be a link... not working?

Suppose you are referring to

Suppose you are referring to the guitar solo at the end...
I couldn't come up with a decent way to make it work on a classical guitar so I decided to leave it out altogether.

No...

so in the Music Video (and On-Stage Preformance) there are indeed two guitars... a First and Second...(First being played by haruhi suzumiya and the second by yuki nagato)

one of those guitars is a

one of those guitars is a rhythm guitar the other is just random harmonizing
the main melody isnt on a guitar at all its the vocals
this arrangement is for solo guitar so of course not all of the song is going to be able to fit on it

Easier than it looks

5

Thought this would be a struggle but it's surprisingly manageable thanks to the arrangement, and sounds awesome. Great job.

Hah yeah the electric guitar

Hah yeah the electric guitar version isn't so kind, thanks for posting on this tab though
I've been here for years and still find tabs from ages ago that are gems. lol