Boukyou no Guitar (Sayonara Zetsubou Sensei) Guitar Tab

Submitted: May 18, 2008 by Kabukibear (Last updated: Oct 16, 2009)

5
Average: 5 (2 votes)
Download | Listen
Game: Sayonara Zetsubou Sensei
Composer(s): Tomoki Hasegawa
Style: 2 or more instruments, Arrangement, Fingerstyle

AutoScroll: Slow | Medium | Fast
Boukyou no Guitar                                 
~Sayonara Zetsubou Sensei~
Composed by: Tomoki Hasegawa
Arranged by: Justin Lincoln

Guitar 1



     H        Q      Q         Q.     E  E  E  E     E   
E||-----------------------|-----------------------------|
B||-----------------------|--4g5------5--5--6--8--8g10--|
G||-----------------------|-----------------------------|
D||----------------4g5----|-----------------------------|
A||-----------------------|-----------------------------|
E||-----------------------|-----------------------------|


  H.             E  E     Q.     E  E  E  E     E     H.           Q     
-----------------------|---------------------------|--------------------|
-----------------------|------------------5--5g10--|--8-----------------|
--7------------7g9--7--|--5------4--5--7-----------|---------------5----|
-----------------------|---------------------------|--------------------|
-----------------------|---------------------------|--------------------|
-----------------------|---------------------------|--------------------|


     Q.      E   Q.        E     Q.       E  Q.       E   
------------------------------|--------------------------|
--8g10------10----------8g10--|--8-----------------------|
----------------10------------|---------7g9--5-----------|
------------------------------|---------------------5g7--|
------------------------------|--------------------------|
------------------------------|--------------------------|


  E  E  E  E  Q.     E     H.             Q         Q.     E  E  E  E     E   
------------------------|----------------------|-----------------------------|
--6--5---------------5--|----------------------|--4g5------5--5--6--8--8g10--|
--------7--5------------|--7-------------------|-----------------------------|
--------------7---------|---------------4g5----|-----------------------------|
------------------------|----------------------|-----------------------------|
------------------------|----------------------|-----------------------------|


  H.             E  E     Q.     E  E  E  E     E     H.           Q     
-----------------------|---------------------------|--------------------|
-----------------------|------------------5--5g10--|--8-----------------|
--7------------7g9--7--|--5------4--5--7-----------|---------------5----|
-----------------------|---------------------------|--------------------|
-----------------------|---------------------------|--------------------|
-----------------------|---------------------------|--------------------|


     Q.      E   E  E  E   E     Q.     E  Q.       E   
--------------------8--7------|------------------------|
--8g10------10--10--------10--|--8------5--------------|
------------------------------|------------5-----------|
------------------------------|-------------------5g7--|
------------------------------|------------------------|
------------------------------|------------------------|


  E  E  E  E  Q.       E     H.           Q         Q.     E  E  E  E  E   
--------------------------|--------------------|--------------------------|
--6--5--------------------|--------------------|-----------------5--6-----|
--------5------------5g7--|--5------------5----|--5g7------7--7--------7--|
-----------7--5-----------|--------------------|--------------------------|
--------------------------|--------------------|--------------------------|
--------------------------|--------------------|--------------------------|


    Q.      E  Q.     E        Q.      E   E   E   E   E   
-------------------------|--------------------------------|
---------------8---------|------------------------10--13--|
--7g9------10---------9--|--9g11------11--11--12----------|
-------------------------|--------------------------------|
-------------------------|--------------------------------|
-------------------------|--------------------------------|


   H.               Q           Q.      E   Q.         E   
-------------------------|--------------------------------|
--12------------10g12----|--12g13------12--10------12g13--|
-------------------------|--------------------------------|
-------------------------|--------------------------------|
-------------------------|--------------------------------|
-------------------------|--------------------------------|


   Q.      E   H              Q.      E   E  E  E  E     H.             Q     
------------------------|-----------------------------|----------------------|
--12------10------------|--8g10------10--10--8--7-----|----------------------|
--------------12--------|--------------------------9--|--7-------------------|
------------------------|-----------------------------|---------------4g5----|
------------------------|-----------------------------|----------------------|
------------------------|-----------------------------|----------------------|


    Q.     E  E  E  E     E     H.             E  E   
-----------------------------|-----------------------|
--4g5------5--5--6--8--8g10--|-----------------------|
-----------------------------|--7------------7g9--7--|
-----------------------------|-----------------------|
-----------------------------|-----------------------|
-----------------------------|-----------------------|


  Q.     E  E  E  E     E     H.           Q     
---------------------------|--------------------|
------------------5--5g10--|--8-----------------|
--5------4--5--7-----------|---------------5----|
---------------------------|--------------------|
---------------------------|--------------------|
---------------------------|--------------------|


     Q.      E   E  E  E     E     Q.       E  Q.       E   
--------------------8--7--------|--------------------------|
--8g10------10--10--------8g10--|--8------4g5--------------|
--------------------------------|--------------5-----------|
--------------------------------|---------------------5g7--|
--------------------------------|--------------------------|
--------------------------------|--------------------------|


  E  E  E  E  Q.       E     H.           Q          Q.      E   E  E  E   E   
--------------------------|--------------------|--------------------8--7------|
--6--5--------------------|--------------------|--8g10------10--10--------10--|
--------5------------5g7--|--5------------5----|------------------------------|
-----------7--5-----------|--------------------|------------------------------|
--------------------------|--------------------|------------------------------|
--------------------------|--------------------|------------------------------|


  Q.     E  Q.       E     E  E  E  E  Q.       E     W                 
------------------------|--------------------------|-------------------|
--8------5--------------|--6--5--------------------|-------------------|
------------5-----------|--------5------------5g7--|--5----------------|
-------------------5g7--|-----------7--5-----------|-------------------|
------------------------|--------------------------|-------------------|
------------------------|--------------------------|-------------------|


      E   E   E   E   Q.        E     W                  
--12g13--12------------------8g10--|--8----------------||
-------------13--10----------------|-------------------||
---------------------12------------|-------------------||
-----------------------------------|-------------------||
-----------------------------------|-------------------||
-----------------------------------|-------------------||




Duration Legend
---------------
W - whole
H - half
Q - quarter
E - 8th
S - 16th
T - 32nd
X - 64th
. - note dotted
|-n-|  - n-tuplets


Tablature Legend
----------------
L - tied note
g - grace note (slide)
(n) - ghost note
/ -  slide into from below or out of upwards
\ -  slide into from above or out of downwards
^ - brush up
v - brush down

===========================================================

Boukyou no Guitar                                 
~Sayonara Zetsubou Sensei~
Composed by: Tomoki Hasegawa
Arranged by: Justin Lincoln

Guitar 2



     W                   E  E  E  E  E  E  E  E     E  E  E  E  E  E  E  E   
E||-------------------|--0-----------0--------0--|--------------3-----------|
B||-------------------|--------1-----------1-----|--------3--------------3--|
G||-------------------|-----0-----0-----0--------|-----0-----0-----0-----1--|
D||-------------------|--------------------------|--------------------------|
A||-------------------|--3--------------------3--|--2-----------------------|
E||-------------------|--------------------------|--------------------0-----|


  E  E  E  E  E  E  E  E     E  E  E  E   E  E  E  E   
--------------0--------0--|-----------0---------------|
--------1-----------1-----|--------0------1--------1--|
-----2-----2-----2--------|-----0---------------3-----|
--------------------------|------------------2--------|
--0--------------------0--|--7--------7\--3--------3--|
--------------------------|---------------------------|


  E  E  E  E  E  E  E  E     E  E  E  E  E  E  E  E   
--------------1-----------|-----------0-----------0--|
--------1-----------1-----|--------0-----1-----1-----|
-----2-----2-----2-----2--|-----0-----------0--------|
--3--------------------3--|--2--------2--------------|
--------------------------|--------------0--------0--|
--------------------------|--------------------------|


  E  E  E  E  S S E  E  E     S  S  E  E  E   E  E  E  E   
--1-----------1------------|------------------------------|
--------1------------1-----|--------------0---3-----0--3--|
-----2-----2----2-------2--|-----------0---------0--------|
--0---------------0--------|--------0---------0--------0--|
---------------------------|----(0)-----------------------|
---------------------------|--3-----------3/--------------|


  E  E  E  E  E  E  E  E     E  E  E  E  E  E  E  E   
--------------0-----------|-----------3-----------0--|
--1-----------------------|--------0-----------0-----|
--------0-----------0-----|-----0-----------1--------|
-----2-----2-----2-----2--|--------------------------|
--3--------------------3--|--2--------2--------------|
--------------------------|--------------0--------0--|


  E  E  E  E  E  E  E  E     E  E  E  E   E  E  E  E   
--------------0-----------|-----------0---------------|
--1--------1-----------1--|--------0------1--------1--|
--------2-----------2-----|-----0---------------3-----|
-----2-----------2--------|------------------2--------|
--0--------------------0--|--7--------7\--3--------3--|
--------------------------|---------------------------|


  E  E  E  E  E  E  E  E     E  E  E  E  S S E  E  E   
--------------1-----------|-----------0----0----------|
--------1-----------1-----|--------0-----1------1-----|
-----2-----2-----2-----2--|-----0------------2-----2--|
--3--------------------3--|-----------2---------------|
--------------------------|--------------0------------|
--------------------------|--0------------------------|


  E  E  E  E  E  E  E  E     E  E  E  E  E  E  E  E   
--------------------------|--------------0-----------|
--------1--------------0--|--1--------3-----------1--|
-----2-----2--------0-----|--------0-----------0-----|
--0--------------0--------|-----2-----------2--------|
--------------------------|--3-----------3-----------|
--------------3-----------|--------------------------|


  E  E  E  E  E  E  E  E     E  E  E  E  E  E  E  E   
--------------3-----------|--------------0--------0--|
--0-----3-----------3-----|--------1-----------1-----|
-----0-----0-----0-----0--|-----0-----0-----0--------|
--------------------------|--------------------------|
--2--------2--------------|--3--------3--3--------3--|
--------------3--------3--|--------------------------|


  E  E  E  E  E  E  E  E     E  E  E  E  E  E  E  E   
--------------2--------2--|--------------0--------0--|
--------0-----------0-----|--------0-----------0-----|
-----2-----2-----2--------|-----1-----1-----1--------|
--------------------------|--2--------2--2--------2--|
--2--------2--2--------2--|--------------------------|
--------------------------|--------------------------|


  E  E  E  E  E  E  E  E     E  E  E  E  E  E  E  E   
--0--------0-----------2--|-----------------------0--|
--------1-----------1-----|--------0-----------0-----|
-----2-----------2--------|-----0-----0-----0--------|
--------------0--------0--|--------------2-----------|
--0--------0--------------|--------------------------|
--------------------------|--3--------3--------------|


  E  E  E  E  E  E  E  E     E  E  E  E  E  E  E  E   
-----------0--------0-----|-----------------------1--|
--------1--------1-----1--|--------1-----------3-----|
-----2-----2--2-----------|-----2-----2-----0--------|
--------------------------|--0--------0--------------|
--0-----------------------|--------------------------|
--------------------------|--------------3-----------|


  E  E  E  E  E  E  E  E     E  E  E  E  E  E  E  E   
--0-----------0--------0--|-----------3-----------0--|
--------1-----------1-----|--------3-----------0-----|
-----0-----0-----0--------|-----0-----------1--------|
--------------------------|--------------------------|
--3--------------------3--|--2--------2--------------|
--------------------------|--------------0-----------|


  E  E  E  E  E  E  E  E     E  E  E  E   E  E  E  E   
--------------0-----------|-----------0---------------|
-----------1-----------1--|--------0------1--------1--|
--------2-----------2-----|-----0---------------3-----|
-----2-----------2--------|------------------2--------|
--0--------0--0--------0--|--7--------7\--3--------3--|
--------------------------|---------------------------|


  E  E  E  E  E  E  E  E     E  E  E  E  E  E  E  E   
--------------1-----------|-----------0-----------0--|
--------1-----------1-----|--------0-----1-----1-----|
-----2-----2-----2-----2--|-----0-----------0--------|
--3--------------------3--|--2--------2--------------|
--------------------------|--------------0--------0--|
--------------------------|--------------------------|


  E  E  E  E  E  E  E  E     E  E  E  E  E  E  E  E     H        H         
--1-----------------------|--------------0-----------|-----------1--------|
--------1--------------0--|--------1--3-----------1--|--------------------|
-----2-----2--------0-----|-----0--------------0-----|--2-----------------|
--0--------0-----0--------|-----------------2--------|--3-----------------|
--------------------------|--3-----------------------|--------------------|
--------------3-----------|--------------------------|--1-----------------|


  E  E  E  E  H           E  E  E  E  E  E  E  E     E  E  E  E  E  E  E  E   
-----------------------|-----------1--------------|--------------------------|
-----------0--1--------|--------3--------------0--|--------------------------|
--------0-----0--------|-----2--------------0-----|--------0--L--L-----0-----|
-----2-----------------|--0--------0-----0--------|-----2-----------2--------|
--------------0--------|--------------------------|--3--------------------3--|
--0--------------------|--------------3-----------|--------------------------|


                                         ^          
  E  E  E  E  E  E  E  E     E  E  E  E  H          
--------------------------|--------------0--------||
--------1--------------0--|--------1--3--1--------||
-----2-----2--------0-----|-----0--------0--------||
-----------------0--------|-----------------------||
--------------------------|--3-----------3--------||
--1-----------3-----------|-----------------------||




Duration Legend
---------------
W - whole
H - half
Q - quarter
E - 8th
S - 16th
T - 32nd
X - 64th
. - note dotted
|-n-|  - n-tuplets


Tablature Legend
----------------
L - tied note
g - grace note (slide)
(n) - ghost note
/ -  slide into from below or out of upwards
\ -  slide into from above or out of downwards
^ - brush up
v - brush down
Login or Register to remove this ad.