Login or Register to remove this ad.

Chikyuugi (Saint Seiya) Bass/Guitar Tab

Submitted: Dec 20, 2007 by CpxAzn (Last updated: Apr 16, 2010)

5
Average: 5 (9 votes)
Download | Listen
Game: Saint Seiya
Composer(s): Seiji Yokoyama
Style: 2 or more instruments, Alternate picking, Transcription

AutoScroll: Slow | Medium | Fast
                                  Chikyuugi                                     


                                                                         Shu Xin
Track 1



                                      S   Q     S  S  S  S   E.    E   E   
E||-------|-------|-------|-------|---------------------------------------|
B||-------|-------|-------|-------|---------------11-11-11s-13~----L------|
G||-------|-------|-------|-------|--10h-12~----L---------------------10--|
D||-------|-------|-------|-------|---------------------------------------|
A||-------|-------|-------|-------|---------------------------------------|
E||-------|-------|-------|-------|---------------------------------------|


   E   S   H         E  S  S S     S   Q     S  S  S  S   E   E.   E   
-------------------------------|----------------------------------11--|
-------------------------------|---------------11-11-11s-13--11-------|
--10----------------------10---|--10h-12~----L------------------------|
------10s-12~--------L---------|--------------------------------------|
-------------------------------|--------------------------------------|
-------------------------------|--------------------------------------|


   H.            T E    S T     S   Q     S  S  S  S   E.    E   E   
--10~-----------------------|---------------------------------------|
----------------------------|---------------11-11-11s-13~----L------|
----------------------/10---|--10h-12~----L---------------------10--|
----------------------------|---------------------------------------|
----------------------------|---------------------------------------|
----------------------------|---------------------------------------|


   E   S   H         E  S  S S     S   Q     S  S  S  S   E   E.   S   S   
-------------------------------|------------------------------------------|
-------------------------------|---------------11-11-11s-13---------------|
--10----------------------10---|--10h-12~----L---------------10---10s-12~-|
------10s-12~--------L---------|------------------------------------------|
-------------------------------|------------------------------------------|
-------------------------------|------------------------------------------|


  H.           E   E      S  S S  S   E   E   S  S S  S   E  E   
----------------------|-----------------------------------------|
----------------------|-----------------------------------------|
--L-------------------|-----------------------------------------|
----------------------|--12-10---10h-12------12-10---10h-12--8--|
------------------10--|------------------10---------------------|
----------------------|-----------------------------------------|


                             PM                                            
   E.  E   S  S   Q.      S  E      S  S S  S   E   E   S  S S  S   E  E   
--------------------------------|-----------------------------------------|
--------------------------------|-----------------------------------------|
----------10--------------------|-----------------------------------------|
--10---8-----10s-12~------------|--12-10---10h-12------12-10---10h-12--8--|
----------------------------10--|------------------10---------------------|
--------------------------------|-----------------------------------------|


   E.   E  S H          E      S  S S  S   E   E   S  S S  S   E  E   
---------------------------|-----------------------------------------|
---------------------------|-----------------------------------------|
---------------------------|-----------------------------------------|
--10---10--8-8~------------|--12-10---10h-12------12-10---10h-12--8--|
-----------------------10--|------------------10---------------------|
---------------------------|-----------------------------------------|


   E.  E   S  S   Q.      S  E      S  S S  S   E   E   S  S S  S   E  E   
--------------------------------|-----------------------------------------|
--------------------------------|-----------------------------------------|
----------10--------------------|-----------------------------------------|
--10---8-----10s-12~------------|--12-10---10h-12------12-10---10h-12--8--|
----------------------------10--|------------------10---------------------|
--------------------------------|-----------------------------------------|


   E.   E  S H          S   S     S   S   S  E   S  S   Q     E.  E   
------------------------------|--------------------------------------|
------------------------------|--10h-11p-10--------------------------|
------------------------------|-------------10-----------------------|
--10---10--8-8~--------10h-12-|-----------------10-10h-12~----L---8--|
------------------------------|--------------------------------------|
------------------------------|--------------------------------------|


   E.  E   S  S   Q.      S  S   S     S   S   S  E   S  S   Q     E.  E   
-----------------------------------|--------------------------------------|
-----------------------------------|--10h-11p-10--------------------------|
----------10-----------------------|-------------10-----------------------|
--10---8-----10s-12~--------10h-12-|-----------------10-10h-12~----L---8--|
-----------------------------------|--------------------------------------|
-----------------------------------|--------------------------------------|


   E.   E  S H          S   S     S   S   S  E   S  S   Q     E.  E   
------------------------------|--------------------------------------|
------------------------------|--10h-11p-10--------------------------|
------------------------------|-------------10-----------------------|
--10---10--8-8~--------10h-12-|-----------------10-10h-12~----L---8--|
------------------------------|--------------------------------------|
------------------------------|--------------------------------------|


   E.  E   S  S   Q.      S  S   S     S   S   S  E   S  S   Q     E.  E   
-----------------------------------|--------------------------------------|
-----------------------------------|--10h-11p-10--------------------------|
----------10-----------------------|-------------10-----------------------|
--10---8-----10s-12~--------10h-12-|-----------------10-10h-12~----L---8--|
-----------------------------------|--------------------------------------|
-----------------------------------|--------------------------------------|


   E.   E  S H         E      S   E.   Q     E.   E.   E   
--------------------------|-------------------------------|
--------------------------|--10h-11---10----13---11---10--|
--------------------------|-------------------------------|
--10---10--8-8~-----------|-------------------------------|
--------------------------|-------------------------------|
--------------------------|-------------------------------|


   E   S  Q.      S  Q       E      S   E.   Q     E.   E.   E   
--------------------------------|-------------------------------|
--10--11-11~--------13br----11--|--10h-11---10----13---11---10--|
--------------------------------|-------------------------------|
--------------------------------|-------------------------------|
--------------------------------|-------------------------------|
--------------------------------|-------------------------------|


   E   S  Q.      S  Q       E      S   E.   Q     E.   E.   E   
--------------------------------|-------------------------------|
--10--11-11~--------13br----11--|--10h-11---10----13---11---10--|
--------------------------------|-------------------------------|
--------------------------------|-------------------------------|
--------------------------------|-------------------------------|
--------------------------------|-------------------------------|


   E   S  Q.      S  Q       E      S   E.   Q     E.   E.   E   
--------------------------------|-------------------------------|
--10--11-11~--------13br----11--|--10h-11---10----13---11---10--|
--------------------------------|-------------------------------|
--------------------------------|-------------------------------|
--------------------------------|-------------------------------|
--------------------------------|-------------------------------|


   E   S  H.            S     S   Q     S  S  S  S   E.    E   E   
--------------------------|---------------------------------------|
--10--11-11~--------------|---------------11-11-11s-13~----L------|
--------------------------|--10h-12~----L---------------------10--|
--------------------------|---------------------------------------|
--------------------------|---------------------------------------|
--------------------------|---------------------------------------|


   E   S   H         E  S  S S     S   Q     S  S  S  S   E   E.   E   
-------------------------------|----------------------------------11--|
-------------------------------|---------------11-11-11s-13--11-------|
--10----------------------10---|--10h-12~----L------------------------|
------10s-12~--------L---------|--------------------------------------|
-------------------------------|--------------------------------------|
-------------------------------|--------------------------------------|


   H.            T E    S T     S   Q     S  S  S  S   E.    E   E   
--10~-----------------------|---------------------------------------|
----------------------------|---------------11-11-11s-13~----L------|
----------------------/10---|--10h-12~----L---------------------10--|
----------------------------|---------------------------------------|
----------------------------|---------------------------------------|
----------------------------|---------------------------------------|


   E   S   H         E  S  S S     S   Q     S  S  S  S   E   E.   S   S   
-------------------------------|------------------------------------------|
-------------------------------|---------------11-11-11s-13---------------|
--10----------------------10---|--10h-12~----L---------------10---10s-12~-|
------10s-12~--------L---------|------------------------------------------|
-------------------------------|------------------------------------------|
-------------------------------|------------------------------------------|


  H.           E   E      S  S S  S   E   E   S  S S  S   E  E   
----------------------|-----------------------------------------|
----------------------|-----------------------------------------|
--L-------------------|-----------------------------------------|
----------------------|--12-10---10h-12------12-10---10h-12--8--|
------------------10--|------------------10---------------------|
----------------------|-----------------------------------------|


                             PM                                            
   E.  E   S  S   Q.      S  E      S  S S  S   E   E   S  S S  S   E  E   
--------------------------------|-----------------------------------------|
--------------------------------|-----------------------------------------|
----------10--------------------|-----------------------------------------|
--10---8-----10s-12~------------|--12-10---10h-12------12-10---10h-12--8--|
----------------------------10--|------------------10---------------------|
--------------------------------|-----------------------------------------|


   E.   E  S H          E      S  S S  S   E   E   S  S S  S   E  E   
---------------------------|-----------------------------------------|
---------------------------|-----------------------------------------|
---------------------------|-----------------------------------------|
--10---10--8-8~------------|--12-10---10h-12------12-10---10h-12--8--|
-----------------------10--|------------------10---------------------|
---------------------------|-----------------------------------------|


                             PM                                            
   E.  E   S  S   Q.      S  E      S  S S  S   E   E   S  S S  S   E  E   
--------------------------------|-----------------------------------------|
--------------------------------|-----------------------------------------|
----------10--------------------|-----------------------------------------|
--10---8-----10s-12~------------|--12-10---10h-12------12-10---10h-12--8--|
----------------------------10--|------------------10---------------------|
--------------------------------|-----------------------------------------|


   E.   E  S H          S   S     S   S   S  E   S  S   Q     E.  E   
------------------------------|--------------------------------------|
------------------------------|--10h-11p-10--------------------------|
------------------------------|-------------10-----------------------|
--10---10--8-8~--------10h-12-|-----------------10-10h-12~----L---8--|
------------------------------|--------------------------------------|
------------------------------|--------------------------------------|


   E.  E   S  S   Q.      S  S   S     S   S   S  E   S  S   Q     E.  E   
-----------------------------------|--------------------------------------|
-----------------------------------|--10h-11p-10--------------------------|
----------10-----------------------|-------------10-----------------------|
--10---8-----10s-12~--------10h-12-|-----------------10-10h-12~----L---8--|
-----------------------------------|--------------------------------------|
-----------------------------------|--------------------------------------|


                                    PH    PH    PH                          
   E.   E  S H          S   S       S     S     S  E   S  S   Q     E.  E   
------------------------------|--------------------------------------------|
------------------------------|--<>10h-<>11p-<>10--------------------------|
------------------------------|-------------------10-----------------------|
--10---10--8-8~--------10h-12-|-----------------------10-10h-12~----L---8--|
------------------------------|--------------------------------------------|
------------------------------|--------------------------------------------|


   E.  E   S  S   Q.      S  S   S     S   S   S  E   S  S   Q     E.  E   
-----------------------------------|--------------------------------------|
-----------------------------------|--10h-11p-10--------------------------|
----------10-----------------------|-------------10-----------------------|
--10---8-----10s-12~--------10h-12-|-----------------10-10h-12~----L---8--|
-----------------------------------|--------------------------------------|
-----------------------------------|--------------------------------------|


   E.   E  S H         E      S   E.   Q     E.   E.   E   
--------------------------|-------------------------------|
--------------------------|--10h-11---10----13---11---10--|
--------------------------|-------------------------------|
--10---10--8-8~-----------|-------------------------------|
--------------------------|-------------------------------|
--------------------------|-------------------------------|


   E   S  Q.      S  Q       E      S   E.   Q     E.   E.   E   
--------------------------------|-------------------------------|
--10--11-11~--------13br----11--|--10h-11---10----13---11---10--|
--------------------------------|-------------------------------|
--------------------------------|-------------------------------|
--------------------------------|-------------------------------|
--------------------------------|-------------------------------|


   E   S  Q.      S  Q       E      S   E.   Q     E.   E.   E   
--------------------------------|-------------------------------|
--10--11-11~--------13br----11--|--10h-11---10----13---11---10--|
--------------------------------|-------------------------------|
--------------------------------|-------------------------------|
--------------------------------|-------------------------------|
--------------------------------|-------------------------------|


   E   S  Q.      S  Q       E   
--------------------------------|
--10--11-11~--------13br----11--|
--------------------------------|
--------------------------------|
--------------------------------|
--------------------------------|


   S   E.   E.   E   T   T   T  S  S  S  S  S  T      W                  
----------------13--10h-11p-10--------------------|---------------------|
--10h-11---10------------------11-13-11-10--------|---------------------|
-------------------------------------------10-10s-|--12~----------------|
--------------------------------------------------|---------------------|
--------------------------------------------------|---------------------|
--------------------------------------------------|---------------------|


                |--3--|                                                      
   H            S  S  S  E    Q         Q     E   S  S  S  S  S  S  E   E    
------------------------------------|---------------------------------------|
--18pbr--------18-15----------------|---------------------------------------|
---------------------15-17~--15~----|---L\--------x--x--x-15-17-15-17--15b--|
------------------------------------|-------------x--x--x-15-15-------------|
------------------------------------|---------------------------------------|
------------------------------------|---------------------------------------|


                                                |--3--|                    
   Q.       S  S  S  S  S  Q      S       Q     S  S  S  E    E.   Q    S  
---------------------------------18br-|---L----17-15-13-15~--15-----------|
--------------------------18~---------|----------------------15-----------|
--15~---------------------17~---------|---------------------------15----L-|
------------x--x-15-17--x-------------|-----------------------------------|
--------------------------------------|-----------------------------------|
--------------------------------------|-----------------------------------|


    E   S  S  S  S  S S  T  T  S   S  S  S   S   S  S  
-------------------13---10-11-10----------------------|
-------------10-11---------------/13-11-10h-11p-10----|
--\10--10-12---------------------------------------10-|
------------------------------------------------------|
------------------------------------------------------|
------------------------------------------------------|


   Q.      S   Q.      S   E      S   Q      S   E   S   Q     E.   
------------------------------|------------------------------------|
----------------------11s-13--|--13s-15~----15s-18--18s-20~----L---|
---L--------------------------|------------------------------------|
----------10s-12--------------|------------------------------------|
------------------------------|------------------------------------|
------------------------------|------------------------------------|


   S   H.            E.    
-------------------------||
--20s-18~------------L---||
-------------------------||
-------------------------||
-------------------------||
-------------------------||




Duration Legend
---------------
W - whole
H - half
Q - quarter
E - 8th
S - 16th
T - 32nd
X - 64th
. - note dotted
|-n-|  - n-tuplets


Tablature Legend
----------------
L - tied note
Login or Register to remove this ad.

9 comments on Chikyuugi

This song is incredible.

This song is incredible.

I hope this song will make

I hope this song will make people stop thinking that electric guitars are pure metal and headbang.

Shu Xin is the best musician

Shu Xin is the best musician i've ever seen!!!!!

Granzort e os guerreiros da luz!

yea this is one badass song

yea this is one badass song

that is a very nice sounding

that is a very nice sounding midi.

That's the midi that I

That's the midi that I exported from guitar pro after tabbing everything out =)

Indeed

wow i am learning this one immediately if not sooner!

It sounds very nice. Excelent

5

It sounds very nice. Excelent use of instruments and percussion. Truly beautiful, it must have been hard to do!

Congratulations!

THANK YOU

5

EPIC