Login or Register to remove this ad.

Pokemon Theme Song (Pokémon) Guitar Tab

Submitted: Sep 29, 2007 by Stamen47 (Last updated: Sep 29, 2007)

4.882355
Average: 4.9 (17 votes)
Download | Listen
Game: Pokémon
Composer(s): John Loeffler
Style: 2 or more instruments, Arrangement
Series: Pokemon

AutoScroll: Slow | Medium | Fast
#----------------------------------PLEASE NOTE---------------------------------#
#This file is the author's own work and represents their interpretation of the #
#song. You may only use this file for private study, scholarship, or research. #
#------------------------------------------------------------------------------##

Gtr I (E A D G B E)
Gtr II (E A D G B E) - voice

  Q=150
 4/4
  Gtr I
  E  E   E   E   E   E   E  E   +E  Q  E E  E  E   E
|----3---3---3---3---3---3--1-|-(1)-1--1-1-(1)(1)----|
|----3---3---3---3---3---3--1-|-(1)-1--1-1-(1)(1)----|
|----3---3---3---3---3---3--2-|-(2)-2--2-2-(2)(2)----|
|-5-(5)-(5)-(5)-(5)-(5)-(5)-3-|-(3)-3--3-3--0h=3--/5-|
|-----------------------------|----------------------|
|-----------------------------|----------------------|
|
| Gtr II - voice
|-----------------------------|----------------------|
|-----------------------------|----------------------|
|-----------------------------|----------------------|
|-----------------------------|----------------------|
|-----------------------------|----------------------|
|-----------------------------|----------------------|

_____________________________________________________________________________

    E  E   E   E   E   E   E   E    E  E   E   E   E  E E E
||-----3---3---3---3---3---3---3--|----1---1---1---1----------|
||o----3---3---3---3---3---3---3--|----1---1---1---1----------|
||-----3---3---3---3---3---3---3--|----2---2---2---2----------|
||--5-(5)-(5)-(5)-(5)-(5)-(5)-(5)-|-3-(3)-(3)-(3)-(3)-3-0-5---|
||o-------------------------------|---------------------------|
||--------------------------------|---------------------------|

|vs. 1-I  wan-na   be         the   ve  -  ry best        like
 vs. 2-I  will travel          a - cross   the land
|   E  E   E   E   Q.          E    Q      E   Q      Q     E
||--------------------------------|---------------------------|
||o----3---3---3---3-----------3--|-1-------------------------|
||--------------------------------|--------2------------------|
||--------------------------------|------------3------------3-|
||o-------------------------------|---------------------------|
||--------------------------------|---------------------------|

_____________________________________________________________________________

  E  E   E   E   E   E   E   E    E  E   E  Q  Q  E
|----3---3---3---3---3---3---3--|-1--1---1--1--1----|
|----3---3---3---3---3---3---3--|-1--1---1--1--1----|
|----3---3---3---3---3---3---3--|-2--2---2--2--2----|
|-5-(5)-(5)-(5)-(5)-(5)-(5)-(5)-|-3-(3)-(3)-3-----1-|
|-------------------------------|--------------3----|
|-------------------------------|-------------------|
|
 no     one     ev - er was
 searching      far and wide
| Q      Q       E   E   Q
|-------------------------------|-------------------|
|-3------3-------1-------1------|-------------------|
|--------------------3----------|-------------------|
|-------------------------------|-------------------|
|-------------------------------|-------------------|
|-------------------------------|-------------------|

_____________________________________________________________________________

  E  E   E   E   E   E   E   E     E   E   E   E   E   E   E   E
|----3---3---3---3---3---3---3--|------1---1---1---1---1---1---1--|
|----4---4---4---4---4---4---4--|------3---3---3---3---3---3---3--|
|----3---3---3---3---3---3---3--|------3---3---3---3---3---3---3--|
|-1-(1)-(1)-(1)-(1)-(1)-(1)-(1)-|---------------------------------|
|-------------------------------|--1--(1)-(1)-(1)-(1)-(1)-(1)-(1)-|
|-------------------------------|---------------------------------|

|   to catch    them    is  my        re-al    teeeeeest       to
    these  po-ke-mon   to   un     -     der - staaaaand       the
|                                              |---3---|
| E  E   Q       Q       E   E    +E   E   E   S   S   S  +Q.  E
|-------------------------------|---------------------------------|
|----4---4-------4-------4---3--|-(3)--3---1---3---1--------------|
|-------------------------------|----------------------3--(3)--3--|
|-------------------------------|---------------------------------|
|-------------------------------|---------------------------------|
|-------------------------------|---------------------------------|

_____________________________________________________________________________

  1st ending                              2nd ending
  Q.    Q.    Q    +E  E E E E E E  E     Q.    Q.    Q    +E  E E E E E E E
|-1-----0-----3--|-(3)-3-3-3-2---------||-1-----3-----5--|-(5)-5-5-5-5-5-5-5-|
|-3-----1-----3--|-(3)-3-3-3-3--------o||-3-----5-----8--|-(8)-8-8-8-7-7-7-7-|
|-3-----0-----2--|-(2)-2-2-2-2---------||-3-----5-----7--|-(7)-7-7-7-7-7-7-7-|
|-------------0--|-(0)-0-0-0-0-0h3-/5--||-3-----5-----7--|-(7)-7-7-7-7-7-7-7-|
|-1-----3--------|--------------------o||-1-----3-----5--|-(5)-5-5-5-5-5-5-5-|
|----------------|---------------------||----------------|-------------------|
|
train them is my cause                   power that's insiiiiide!     Pokemon!

| Q   E Q   E Q    +Q                     Q   E Q   E Q    +Q.     Q   E E E
|----------------|---------------------||----------------|-----------------3-|
|-3---3-1-----3--|-(3)----------------o||-3---3-1-----3--|-(3)---------3-6---|
|-----------3----|---------------------||-----------3----|-------------------|
|----------------|---------------------||----------------|-------------------|
|----------------|--------------------o||----------------|-------------------|
|----------------|---------------------||----------------|-------------------|

_____________________________________________________________________________

  E E E E E E E E    E  E E E E E  E  E
|-6-6---6-6-6---6-|--6--6---6-6-6-----6-|
|-8-8---8-8-8---8-|--6--6---6-6-6-----6-|
|-8-8---8-8-8---8-|--7--7---7-7-7-----7-|
|-8-8---8-8-8---8-|--8--8---8-8-8-----8-|
|-6-6---6-6-6---6-|--8--8---8-8-8-----8-|
|-----------------|--6--6---6-6-6-----6-|

|              It's you and  me
|                           |-3-|
| Q   E E E Q   E    E  E E S S S +Q
|-----------3---3-|-(3)-----------------|
|-----3-3-6-------|--6--3---3-----------|
|-----------------|-------5---5-3-(3)---|
|-----------------|---------------------|
|-----------------|---------------------|
|-----------------|---------------------|

_____________________________________________________________________________

  E  E E E E E E E    E   E E  E  E  E E  E
|-6--6---6-6-6---6-|--8---8----8--8--8----8-|
|-8--8---8-8-8---8-|-10--10---10-10-10---10-|
|-8--8---8-8-8---8-|-10--10---10-10-10---10-|
|-8--8---8-8-8---8-|-10--10---10-10-10---10-|
|-6--6---6-6-6---6-|--8---8----8--8--8----8-|
|------------------|------------------------|

|    I know it's my des-ti - ny!   POKEMON!

| Q.     E E E E E   +E   Q    E  E  E E  E
|--------3-3-5-6-5-|-(5)--3-------3-------3-|
|------------------|-----------6-----3-6----|
|------------------|------------------------|
|------------------|------------------------|
|------------------|------------------------|
|------------------|------------------------|

_____________________________________________________________________________

  E E E E E E  E  E    E E E E E E E E   Q.    Q.    Q     +E  E E E E E E E
|-3-3---3-3-3-----3-|--5-5---5-5-5---5-|-1-----3-----5---|-(5)-5-5-5-5-5-5-5-|
|-3-3---3-3-3-----3-|--6-6---6-6-6---6-|-3-----5-----8---|-(8)-8-8-8-7-7-7-7-|
|-3-3---3-3-3-----3-|--5-5---5-5-5---5-|-3-----5-----7---|-(7)-7-7-7-7-7-7-7-|
|-5-5---5-5-5-----5-|--7-7---7-7-7---7-|-3-----5-----7---|-(7)-7-7-7-7-7-7-7-|
|-------------------|------------------|-1-----3-----5---|-(5)-5-5-5-5-5-5-5-|
|-------------------|------------------|-----------------|-------------------|
|

     OOooh you're my best friend in a  world we must defeeend!        POKEMON!
|     ~                                                ~~~~~~~~
| Q   H       +E  E    E Q   Q   E E E   Q   E Q   E   Q   +Q.     Q   E E E
|-----3-------(3)-3-|-1---------------|-----------------|-----------------3-|
|-------------------|----3---1-------1-|-3---3-1-------3-|-(3)---------3-6---|
|-------------------|------------3-3---|-----------3-----|-------------------|
|-------------------|------------------|-----------------|-------------------|
|-------------------|------------------|-----------------|-------------------|
|-------------------|------------------|-----------------|-------------------|

_____________________________________________________________________________

  E E E E E E E E    E  E E  E  E  E E  E
|-6-6---6-6-6---6-|--8--8----8--8--8----8--|
|-8-8---8-8-8---8-|-10-10---10-10-10---10--|
|-8-8---8-8-8---8-|-10-10---10-10-10---10--|
|-8-8---8-8-8---8-|-10-10---10-10-10---10--|
|-6-6---6-6-6---6-|--8--8----8--8--8----8--|
|-----------------|------------------------|

|               A  heart so  truuuueee
|                               |-3--|
| Q   E E E Q   E    E  Q    Q  S  S S +Q
|-----------3-----|--3-------3--5--3-------|
|-----3-3-6-----6-|-----6------------6-(6)-|
|-----------------|------------------------|
|-----------------|------------------------|
|-----------------|------------------------|
|-----------------|------------------------|

_____________________________________________________________________________

   E   E E  E  E  E E  E    E  E E E E E E E
|-10--10---10-10-10---10-|--5--5---5-5-5---5-|
|-11--11---11-11-11---11-|--6--6---6-6-6---6-|
|-12--12---12-12-12---12-|--7--7---7-7-7---7-|
|-12--12---12-12-12---12-|--7--7---7-7-7---7-|
|-10--10---10-10-10---10-|--5--5---5-5-5---5-|
|------------------------|-------------------|
|

          Our courage will pull us through!
|                                  ~
|  Q.       E  E  E E  E   +E  Q   H       E
|-----------3--3--5-6--5-|-(5)-3-------------|
|------------------------|---------6-------6-|
|------------------------|-------------------|
|------------------------|-------------------|
|------------------------|-------------------|
|------------------------|-------------------|

_____________________________________________________________________________

  E E E E E E E E    E  E E E E E E E
|-6-6---6-6-6---6-|--1--1---1-1-1---1-|
|-8-8---8-8-8---8-|--3--3---3-3-3---3-|
|-8-8---8-8-8---8-|--3--3---3-3-3---3-|
|-8-8---8-8-8---8-|--3--3---3-3-3---3-|
|-6-6---6-6-6---6-|--1--1---1-1-1---1-|
|-----------------|-------------------|
|

 you teach me and I'll teach you
|                           ~
| E Q   Q   Q   E   +E  Q   H       E
|---6---6---------|-----6---6---------|
|-4---------4---6-|-(6)---------------|
|-----------------|-------------------|
|-----------------|-------------------|
|-----------------|-------------------|
|-----------------|-------------------|

_____________________________________________________________________________

  Q.   Q.   Q     +E  E  E   E   Q    Q
|-1----3----5---|-(5)-5--5---5---5----5---|
|-3----5----8---|-(8)-8--8---8---7----7---|
|-3----5----7---|-(7)-7--7---7---7----7---|
|-3----5----7---|-(7)-7--7---7---7----7---|
|-1----3----5---|-(5)-5--5---5---5----5---|
|---------------|-------------------------|
|

 PO - KE - MOOOOON!!!!
|             ~~~~~~~~~~~~~~~~~~~~~~
| Q.   Q.   E E   +Q     E   E   E  Q   E
|-6----6----6-5-|-(5)---(5)-(5)-(5)-3---3-|
|---------------|--------3---3---6--------|
|---------------|-------------------------|
|---------------|-------------------------|
|---------------|-------------------------|
|---------------|-------------------------|

_____________________________________________________________________________

   Q.      H        +E    E  E   E  Q  Q.
|--6-------8--------(8)-|----1--(1)-3-------*|----|
|--8------10-------(10)-|----1--(1)-3-------*|----|
|--8------10-------(10)-|----2--(2)-3-------*|----|
|--8------10-------(10)-|----0h==3--5-------*|----|
|--6-------8--------(8)-|-------------------*|----|
|-----------------------|-------------------*|----|
|
    gotta catch 'em   all!  POKEMON!

| +E  E E  E E Q E        E  E   E  Q  Q.
|-(3)----------3-6------|-3-(3)-(3)-3-------*|----|
|-------3--3-6----------|----3---6----------*|----|
|-----------------------|-------------------*|----|
|-----------------------|-------------------*|----|
|-----------------------|-------------------*|----|
|-----------------------|-------------------*|----|
Login or Register to remove this ad.

8 comments on Pokemon Theme Song

Now that was kick ass XD in

Now that was kick ass XD in a good way :)

oops double post :s

oops double post :s

only two other comments....

only two other comments....

im going to learn this song.

5

im going to learn this song. Go Pokemon!

HELL YES!!! XD

HELL YES!!! XD

Heh, good job :)

4

Really good!

epic! I can't play it yet,

5

epic! I can't play it yet, but I'm gonna try!

Pick up all the ladies with this one

5

epic