Ads

I Said I'm Naruto! (Naruto) Guitar Tab

Submitted: Oct 13, 2007 by Yamato (Last updated: Oct 13, 2007)

5
Average: 5 (5 votes)
Download | Listen
Game: Naruto
Composer(s): Toshiro Masuda
Style: 2 or more instruments, Transcription
Series: Naruto

AutoScroll: Slow | Medium | Fast

Guitar 1

                               I said Im Naruto


                                                                          
Naruto
Guitar 1



     W                   W                   W
E||-------------------|-------------------|-------------------|
B||-------------------|-------------------|-------------------|
G||-------------------|-------------------|-------------------|
D||-------------------|-------------------|-------------------|
A||-------------------|-------------------|-------------------|
E||-------------------|-------------------|-------------------|


  W                   W                   W                   W
-------------------|-------------------|-------------------|-------------------|
-------------------|-------------------|-------------------|-------------------|
-------------------|-------------------|-------------------|-------------------|
-------------------|-------------------|-------------------|-------------------|
-------------------|-------------------|-------------------|-------------------|
-------------------|-------------------|-------------------|-------------------|


  W                   W                   W                   W
-------------------|-------------------|-------------------|-------------------|
-------------------|-------------------|-------------------|-------------------|
-------------------|-------------------|-------------------|-------------------|
-------------------|-------------------|--3----------------|--2----------------|
-------------------|-------------------|--3----------------|--2----------------|
-------------------|-------------------|--1----------------|--0----------------|


  W                   Q.     Q.     Q       W
-------------------|---------------------|-------------------|
-------------------|---------------------|-------------------|
-------------------|---------2-----------|-------------------|
--3----------------|--2------2------5----|--3----------------|
--3----------------|--2------0------5----|--3----------------|
--1----------------|--0-------------3----|--1----------------|


  W                   W                   Q    Q    Q    Q
-------------------|-------------------|----------------------|
-------------------|-------------------|----------------------|
-------------------|-------------------|----------------------|
--4----------------|--5----------------|--2----2----2---------|
--5----------------|--5----------------|--2----2----2---------|
--2----------------|--3----------------|--0----0----0---------|


  W                   W                   W                   W
-------------------|-------------------|-------------------|-------------------|
-------------------|-------------------|-------------------|-------------------|
-------------------|-------------------|-------------------|-------------------|
-------------------|-------------------|-------------------|-------------------|
-------------------|-------------------|-------------------|-------------------|
-------------------|-------------------|-------------------|-------------------|


  W                   W                   W                   W
-------------------|-------------------|-------------------|-------------------|
-------------------|-------------------|-------------------|-------------------|
-------------------|-------------------|-------------------|-------------------|
-------------------|-------------------|-------------------|-------------------|
-------------------|-------------------|-------------------|-------------------|
-------------------|-------------------|-------------------|-------------------|


  W                   W                   W                   W
-------------------|-------------------|-------------------|-------------------|
-------------------|-------------------|-------------------|-------------------|
-------------------|-------------------|-------------------|-------------------|
-------------------|-------------------|-------------------|-------------------|
-------------------|-------------------|-------------------|-------------------|
-------------------|-------------------|-------------------|-------------------|


  W                   W                   W                   W
-------------------|-------------------|-------------------|-------------------|
-------------------|-------------------|-------------------|-------------------|
-------------------|-------------------|-------------------|-------------------|
-------------------|-------------------|-------------------|-------------------|
-------------------|-------------------|-------------------|-------------------|
-------------------|-------------------|-------------------|-------------------|


  W                   W                   W
-------------------|-------------------|-------------------|
-------------------|-------------------|-------------------|
-------------------|-------------------|-------------------|
--3----------------|--2----------------|--3----------------|
--3----------------|--2----------------|--3----------------|
--1----------------|--0----------------|--1----------------|


  Q.     Q.     Q       W                   W
---------------------|-------------------|-------------------|
---------------------|-------------------|-------------------|
---------2-----------|-------------------|-------------------|
--2------2------5----|--3----------------|--4----------------|
--2------0------5----|--3----------------|--5----------------|
--0-------------3----|--1----------------|--2----------------|


  W                   Q    Q    Q    Q       W
-------------------|----------------------|-------------------|
-------------------|----------------------|-------------------|
-------------------|----------------------|-------------------|
--5----------------|--2----2----2---------|-------------------|
--5----------------|--2----2----2---------|-------------------|
--3----------------|--0----0----0---------|-------------------|


  W                   W                   W                   W
-------------------|-------------------|-------------------|-------------------|
-------------------|-------------------|-------------------|-------------------|
-------------------|-------------------|-------------------|-------------------|
-------------------|-------------------|-------------------|-------------------|
-------------------|-------------------|-------------------|-------------------|
-------------------|-------------------|-------------------|-------------------|


  W                   W                   W
-------------------|-------------------|-------------------|
-------------------|-------------------|-------------------|
-------------------|-------------------|-------------------|
-------------------|-------------------|-------------------|
-------------------|-------------------|-------------------|
-------------------|-------------------|-------------------|


   E   E   E   Q     E   E   E     E   Q     E  E   E  E  E
--17--15------15--------12--10--|--8--10--------8------------|
----------17--------15----------|-----------10-----10-----8--|
--------------------------------|----------------------9-----|
--------------------------------|----------------------------|
--------------------------------|----------------------------|
--------------------------------|----------------------------|


  W                   H.           E  E     E   Q    E   Q     E   E
-------------------|---------------------|--------------------15--17--||
--L----------------|--L------------8--8--|--8--10----8--10------------||
-------------------|---------------------|--------------------12--14--||
-------------------|---------------------|----------------------------||
-------------------|---------------------|----------------------------||
-------------------|---------------------|----------------------------||




Duration Legend
---------------
W - whole
H - half
Q - quarter
E - 8th
S - 16th
T - 32nd
X - 64th
. - note dotted
|-n-|  - n-tuplets

Guitar 2

                               I said Im Naruto


                                                                          
Naruto
Guitar 2



                     PM    PM  PM  PM PM      PM    PM  PM  PM PM      PM
     H.           E  E     E.  E.  E  Q    E  E     E.  E.  E  Q    E  E
E||---------------------|------------------------|------------------------|
B||---------------------|------------------------|------------------------|
G||---------------------|------------------------|------------------------|
D||---------------------|------------------------|------------------------|
A||---------------------|--0---0------0----------|--0---0------0-------3--|
E||------------------3--|----------3----------3--|----------3-------------|


  PM  PM  PM PM      PM    PM  PM  PM PM PM PM PM    PM  PM  PM PM      PM
  E.  E.  E  Q    E  E     E.  E.  E  E  E  E  E     E.  E.  E  Q    E  E
------------------------|-------------------------|------------------------|
------------------------|-------------------------|------------------------|
------------------------|-------------------------|------------------------|
--0---0------0----------|--0---0------0--2--0-----|------------------------|
----------3----------3--|----------3-----------3--|--0---0------0----------|
------------------------|-------------------------|----------3----------3--|


  PM  PM  PM PM      PM    PM  PM  PM PM      PM    PM  PM  PM PM PM PM PM
  E.  E.  E  Q    E  E     E.  E.  E  Q    E  E     E.  E.  E  E  E  E  E
------------------------|------------------------|-------------------------|
------------------------|------------------------|-------------------------|
------------------------|------------------------|-------------------------|
------------------------|--0---0------0----------|--0---0------0--2--0-----|
--0---0------0-------3--|----------3----------3--|----------3-----------3--|
----------3-------------|------------------------|-------------------------|


  Q     E  E   Q     Q        Q.      H        E     Q     E   E   Q     Q
--------------------12----|--10-------------------|---------------------12----|
-------10--8--10----------|----------12--------L--|-------10------10----------|
--------------------------|-----------------------|-----------12--------------|
--------------------------|-----------------------|---------------------------|
--------------------------|-----------------------|---------------------------|
--------------------------|-----------------------|---------------------------|


   Q     E   H        E     Q     E  E   Q     Q        Q.     Q.      Q
--10----15--12--------L--|--------------------12----|--10------8------12----|
-------------------------|-------10--8--10----------|-----------------------|
-------------------------|--------------------------|-----------------------|
-------------------------|--------------------------|-----------------------|
-------------------------|--------------------------|-----------------------|
-------------------------|--------------------------|-----------------------|


                                            PM    PM  PM  PM PM      PM
   Q.      Q.      Q        H.           E  E     E.  E.  E  Q    E  E
--10------15------17----|----------------------|------------------------|
------------------------|--17------------L-----|------------------------|
------------------------|----------------------|------------------------|
------------------------|----------------------|------------------------|
------------------------|----------------------|--0---0------0----------|
------------------------|-------------------3--|----------3----------3--|


  PM  PM  PM PM      PM    PM  PM  PM PM      PM    PM  PM  PM PM PM PM PM
  E.  E.  E  Q    E  E     E.  E.  E  Q    E  E     E.  E.  E  E  E  E  E
------------------------|------------------------|-------------------------|
------------------------|------------------------|-------------------------|
------------------------|------------------------|-------------------------|
------------------------|--0---0------0----------|--0---0------0--2--0-----|
--0---0------0-------3--|----------3----------3--|----------3-----------3--|
----------3-------------|------------------------|-------------------------|


  PM  PM  PM PM      PM    PM  PM  PM PM      PM    PM  PM  PM PM      PM
  E.  E.  E  Q    E  E     E.  E.  E  Q    E  E     E.  E.  E  Q    E  E
------------------------|------------------------|------------------------|
------------------------|------------------------|------------------------|
------------------------|------------------------|------------------------|
------------------------|------------------------|--0---0------0----------|
--0---0------0----------|--0---0------0-------3--|----------3----------3--|
----------3----------3--|----------3-------------|------------------------|


  PM  PM  PM PM PM PM PM
  E.  E.  E  E  E  E  E     E  E  E  Q    E  Q       Q.     Q.     Q
-------------------------|------------------------|---------------------|
-------------------------|------------------------|----------------3----|
-------------------------|--2-------------2-------|---------5------2----|
--0---0------0--2--0-----|--2--5--2--5----2-------|---------5------0----|
----------3-----------3--|--0--5--2--5----0-------|---------3-----------|
-------------------------|-----3--0--3------------|---------------------|


  E  E  E  Q    E  Q       Q    H.              E  E  E  Q    E  Q
------------------------|--------------------|------------------------|
------------------------|--------------------|------------------------|
--2-------------2-------|--------------------|--2-------------2-------|
--2--5--2--5----2-------|-------5------------|--2--5--2--5----2-------|
--0--5--2--5----0-------|-------5------------|--0--5--2--5----0-------|
-----3--0--3------------|-------3------------|-----3--0--3------------|


                                                      PM PM PM PM PM PM
  Q.     Q.     Q       E  E  E  Q    E  Q       Q    E  E  E  E  E  E
---------------------|------------------------|-------------------------|
----------------3----|------------------------|-------------------------|
---------5------2----|--2-------------2-------|-------------------------|
---------5------0----|--2--5--2--5----2-------|--2----2--2--2--2--2--2--|
---------3-----------|--0--5--2--5----0-------|--2----2--2--2--2--2--2--|
---------------------|-----3--0--3------------|--0----0--0--0--0--0--0--|


  Q     E  E   Q     Q        Q.      H        E     Q     E  E   Q     Q
--------------------12----|--10-------------------|--------------------12----|
-------10--8--10----------|----------12--------L--|-------10--8--10----------|
--------------------------|-----------------------|--------------------------|
--------------------------|-----------------------|--------------------------|
--------------------------|-----------------------|--------------------------|
--------------------------|-----------------------|--------------------------|


   Q     E   H        E     Q     E  E   Q     Q        Q.     Q.      Q
--10----15--12--------L--|--------------------12----|--10------8------12----|
-------------------------|-------10--8--10----------|-----------------------|
-------------------------|--------------------------|-----------------------|
-------------------------|--------------------------|-----------------------|
-------------------------|--------------------------|-----------------------|
-------------------------|--------------------------|-----------------------|


                                            PM    PM  PM  PM PM      PM
   Q.      Q.      Q        H.           E  E     E.  E.  E  Q    E  E
--10------15------17----|----------------------|------------------------|
------------------------|--17------------L-----|------------------------|
------------------------|----------------------|------------------------|
------------------------|----------------------|------------------------|
------------------------|----------------------|--0---0------0----------|
------------------------|-------------------3--|----------3----------3--|


  PM  PM  PM PM      PM    PM  PM  PM PM      PM    PM  PM  PM PM PM PM PM
  E.  E.  E  Q    E  E     E.  E.  E  Q    E  E     E.  E.  E  E  E  E  E
------------------------|------------------------|-------------------------|
------------------------|------------------------|-------------------------|
------------------------|------------------------|-------------------------|
------------------------|--0---0------0----------|--0---0------0--2--0-----|
--0---0------0-------3--|----------3----------3--|----------3-----------3--|
----------3-------------|------------------------|-------------------------|


  PM  PM  PM PM      PM    PM  PM  PM PM      PM    PM  PM  PM PM      PM
  E.  E.  E  Q    E  E     E.  E.  E  Q    E  E     E.  E.  E  Q    E  E
------------------------|------------------------|------------------------|
------------------------|------------------------|------------------------|
------------------------|------------------------|------------------------|
------------------------|------------------------|--0---0------0----------|
--0---0------0----------|--0---0------0-------3--|----------3----------3--|
----------3----------3--|----------3-------------|------------------------|


  PM  PM  PM PM PM PM PM
  E.  E.  E  E  E  E  E     E  E  E  Q    E  E  E     E  Q    E  E  E  E  E
-------------------------|-------------------------|-------------------------|
-------------------------|-------------------------|-------------------------|
-------------------------|--2--0-----0-------------|-------------------------|
--0---0------0--2--0-----|--------2-------0--2--0--|-------------------------|
----------3-----------3--|-------------------------|--3--5----0--3--0--------|
-------------------------|-------------------------|-------------------0--3--|


  W                   H.           E  E     E  Q    E  Q    E  E
-------------------|---------------------|------------------------||
-------------------|---------------------|------------------------||
-------------------|---------------------|------------------------||
-------------------|---------------------|------------------5--7--||
-------------------|---------------------|------------------------||
--L----------------|--L------------3--3--|--3--5----3--5----------||




Duration Legend
---------------
W - whole
H - half
Q - quarter
E - 8th
S - 16th
T - 32nd
X - 64th
. - note dotted
|-n-|  - n-tuplets

Guitar 3

                               I said Im Naruto


                                                                          
Naruto
Melodie



     W                    H.           Q        H.            Q
E||-------------------|----------------8----|--10------------12----|
B||-------------------|--10-----------------|----------------------|
G||-------------------|---------------------|----------------------|
D||-------------------|---------------------|----------------------|
A||-------------------|---------------------|----------------------|
E||-------------------|---------------------|----------------------|


   W                   W                    H.           Q
--10----------------|-------------------|----------------8----|
--------------------|-------------------|--10-----------------|
--------------------|-------------------|---------------------|
--------------------|-------------------|---------------------|
--------------------|-------------------|---------------------|
--------------------|-------------------|---------------------|


   H.            Q        W                   W
--10------------12----|--10----------------|-------------------|
----------------------|--------------------|-------------------|
----------------------|--------------------|-------------------|
----------------------|--------------------|-------------------|
----------------------|--------------------|-------------------|
----------------------|--------------------|-------------------|


   W                    H        E   E   E   E      W
--17----------------|--15--------L------12--15--|--17----------------|
--------------------|---------------15----------|--------------------|
--------------------|---------------------------|--------------------|
--------------------|---------------------------|--------------------|
--------------------|---------------------------|--------------------|
--------------------|---------------------------|--------------------|


   Q.      E   E   E   E   E      W                    Q.      Q.      Q
--15------15--17--15----------|--------------------|--17------20------24----|
----------------------17--15--|--17----------------|------------------------|
------------------------------|--------------------|------------------------|
------------------------------|--------------------|------------------------|
------------------------------|--------------------|------------------------|
------------------------------|--------------------|------------------------|


   W                    Q     Q     Q    Q        H.           Q
--22----------------|--24----24----24---------|----------------8----|
--------------------|-------------------------|--10-----------------|
--------------------|--21----21----21---------|---------------------|
--------------------|-------------------------|---------------------|
--------------------|-------------------------|---------------------|
--------------------|-------------------------|---------------------|


   H.            Q        W                   W
--10------------12----|--10----------------|-------------------|
----------------------|--------------------|-------------------|
----------------------|--------------------|-------------------|
----------------------|--------------------|-------------------|
----------------------|--------------------|-------------------|
----------------------|--------------------|-------------------|


   H.           Q        H.            Q        W
----------------8----|--10------------12----|--10----------------|
--10-----------------|----------------------|--------------------|
---------------------|----------------------|--------------------|
---------------------|----------------------|--------------------|
---------------------|----------------------|--------------------|
---------------------|----------------------|--------------------|


  W                   E  E  E  Q    E  Q       Q.     Q.      Q
-------------------|--5--3--0--3----5-------|---------8------10----|
-------------------|------------------------|----------------------|
-------------------|------------------------|----------------------|
-------------------|------------------------|----------------------|
-------------------|------------------------|----------------------|
-------------------|------------------------|----------------------|


  E  E  E  Q    E  Q       Q    H.              E  E  E  Q    E  Q
--5--3--0--3----5-------|--------------------|--5--3--0--3----5-------|
------------------------|-------8------------|------------------------|
------------------------|--------------------|------------------------|
------------------------|--------------------|------------------------|
------------------------|--------------------|------------------------|
------------------------|--------------------|------------------------|


  Q.     Q.      Q       E  E  E  Q    E  Q       W
---------8------10----|--5--3--0--3----5-------|-------------------|
----------------------|------------------------|-------------------|
----------------------|------------------------|-------------------|
----------------------|------------------------|-------------------|
----------------------|------------------------|-------------------|
----------------------|------------------------|-------------------|


   W                    H        E   E   E   E      W
--17----------------|--15--------L------12--15--|--17----------------|
--------------------|---------------15----------|--------------------|
--------------------|---------------------------|--------------------|
--------------------|---------------------------|--------------------|
--------------------|---------------------------|--------------------|
--------------------|---------------------------|--------------------|


   Q.      E   E   E   E   E      W                    Q.      Q.      Q
--15------15--17--15----------|--------------------|--17------20------24----|
----------------------17--15--|--17----------------|------------------------|
------------------------------|--------------------|------------------------|
------------------------------|--------------------|------------------------|
------------------------------|--------------------|------------------------|
------------------------------|--------------------|------------------------|


   W                    Q     Q     Q    Q        H.           Q
--22----------------|--24----24----24---------|----------------8----|
--------------------|-------------------------|--10-----------------|
--------------------|--21----21----21---------|---------------------|
--------------------|-------------------------|---------------------|
--------------------|-------------------------|---------------------|
--------------------|-------------------------|---------------------|


   H.            Q        W                   W
--10------------12----|--10----------------|-------------------|
----------------------|--------------------|-------------------|
----------------------|--------------------|-------------------|
----------------------|--------------------|-------------------|
----------------------|--------------------|-------------------|
----------------------|--------------------|-------------------|


   H.           Q        H.            Q        W
----------------8----|--10------------15----|--10----------------|
--10-----------------|----------------------|--------------------|
---------------------|----------------------|--------------------|
---------------------|----------------------|--------------------|
---------------------|----------------------|--------------------|
---------------------|----------------------|--------------------|


  W                    E   E   E   Q     E   E   E
-------------------|--17--15------15--------12--10--|
-------------------|----------17--------15----------|
-------------------|--------------------------------|
-------------------|--------------------------------|
-------------------|--------------------------------|
-------------------|--------------------------------|


  E   Q     E  E   E  E  E     W                   H.           E  E
--8--10--------8------------|-------------------|---------------------|
-----------10-----10-----8--|--L----------------|--L------------8--8--|
----------------------9-----|-------------------|---------------------|
----------------------------|-------------------|---------------------|
----------------------------|-------------------|---------------------|
----------------------------|-------------------|---------------------|


  E   Q    E   Q     E   E
--------------------15--17--||
--8--10----8--10------------||
--------------------12--14--||
----------------------------||
----------------------------||
----------------------------||




Duration Legend
---------------
W - whole
H - half
Q - quarter
E - 8th
S - 16th
T - 32nd
X - 64th
. - note dotted
|-n-|  - n-tuplets

Guitar 4

                               I said Im Naruto


                                                                          
Naruto
Sitar



     W                    H.           Q        H.            Q
E||-------------------|----------------8----|--10------------12----|
B||-------------------|--10-----------------|----------------------|
G||-------------------|---------------------|----------------------|
D||-------------------|---------------------|----------------------|
A||-------------------|---------------------|----------------------|
E||-------------------|---------------------|----------------------|


   W                   W                    H.           Q
--10----------------|-------------------|----------------8----|
--------------------|-------------------|--10-----------------|
--------------------|-------------------|---------------------|
--------------------|-------------------|---------------------|
--------------------|-------------------|---------------------|
--------------------|-------------------|---------------------|


   H.            Q        W                   W
--10------------12----|--10----------------|-------------------|
----------------------|--------------------|-------------------|
----------------------|--------------------|-------------------|
----------------------|--------------------|-------------------|
----------------------|--------------------|-------------------|
----------------------|--------------------|-------------------|


  W                   W                   W                   W
-------------------|-------------------|-------------------|-------------------|
-------------------|-------------------|-------------------|-------------------|
-------------------|-------------------|-------------------|-------------------|
-------------------|-------------------|-------------------|-------------------|
-------------------|-------------------|-------------------|-------------------|
-------------------|-------------------|-------------------|-------------------|


  W                   W                   W                   W
-------------------|-------------------|-------------------|-------------------|
-------------------|-------------------|-------------------|-------------------|
-------------------|-------------------|-------------------|-------------------|
-------------------|-------------------|-------------------|-------------------|
-------------------|-------------------|-------------------|-------------------|
-------------------|-------------------|-------------------|-------------------|


   H.           Q        H.            Q        W
----------------8----|--10------------12----|--10----------------|
--10-----------------|----------------------|--------------------|
---------------------|----------------------|--------------------|
---------------------|----------------------|--------------------|
---------------------|----------------------|--------------------|
---------------------|----------------------|--------------------|


  W                    H.           Q        H.            Q
-------------------|----------------8----|--10------------12----|
-------------------|--10-----------------|----------------------|
-------------------|---------------------|----------------------|
-------------------|---------------------|----------------------|
-------------------|---------------------|----------------------|
-------------------|---------------------|----------------------|


   W                   W                   W
--10----------------|-------------------|-------------------|
--------------------|-------------------|-------------------|
--------------------|-------------------|-------------------|
--------------------|-------------------|-------------------|
--------------------|-------------------|-------------------|
--------------------|-------------------|-------------------|


  W                   W                   W                   W
-------------------|-------------------|-------------------|-------------------|
-------------------|-------------------|-------------------|-------------------|
-------------------|-------------------|-------------------|-------------------|
-------------------|-------------------|-------------------|-------------------|
-------------------|-------------------|-------------------|-------------------|
-------------------|-------------------|-------------------|-------------------|


  W                   W                   W                   W
-------------------|-------------------|-------------------|-------------------|
-------------------|-------------------|-------------------|-------------------|
-------------------|-------------------|-------------------|-------------------|
-------------------|-------------------|-------------------|-------------------|
-------------------|-------------------|-------------------|-------------------|
-------------------|-------------------|-------------------|-------------------|


  W                   W                   W                   W
-------------------|-------------------|-------------------|-------------------|
-------------------|-------------------|-------------------|-------------------|
-------------------|-------------------|-------------------|-------------------|
-------------------|-------------------|-------------------|-------------------|
-------------------|-------------------|-------------------|-------------------|
-------------------|-------------------|-------------------|-------------------|


  W                   W                   W
-------------------|-------------------|-------------------|
-------------------|-------------------|-------------------|
-------------------|-------------------|-------------------|
-------------------|-------------------|-------------------|
-------------------|-------------------|-------------------|
-------------------|-------------------|-------------------|


   H.           Q        H.            Q        W
----------------8----|--10------------12----|--10----------------|
--10-----------------|----------------------|--------------------|
---------------------|----------------------|--------------------|
---------------------|----------------------|--------------------|
---------------------|----------------------|--------------------|
---------------------|----------------------|--------------------|


  W                    H.           Q        H.            Q
-------------------|----------------8----|--10------------15----|
-------------------|--10-----------------|----------------------|
-------------------|---------------------|----------------------|
-------------------|---------------------|----------------------|
-------------------|---------------------|----------------------|
-------------------|---------------------|----------------------|


   W                   W                   W
--10----------------|-------------------|-------------------|
--------------------|-------------------|-------------------|
--------------------|-------------------|-------------------|
--------------------|-------------------|-------------------|
--------------------|-------------------|-------------------|
--------------------|-------------------|-------------------|


  W                   W                   W
-------------------|-------------------|-------------------|
-------------------|-------------------|-------------------|
-------------------|-------------------|-------------------|
-------------------|-------------------|-------------------|
-------------------|-------------------|-------------------|
-------------------|-------------------|-------------------|


  W
-------------------||
-------------------||
-------------------||
-------------------||
-------------------||
-------------------||




Duration Legend
---------------
W - whole
H - half
Q - quarter
E - 8th
S - 16th
T - 32nd
X - 64th
. - note dotted
|-n-|  - n-tuplets
Login or Register to remove this ad.

1 comment on I Said I'm Naruto!

a little +

 Q     E  E   Q     Q        Q.      H        E     Q     E  E   Q     Q
----------------12----|--10-------------------|--------------------12----|
---10--8--10----------|----------12--------L--|---8--10--10--8--10-------|
----------------------|-----------------------|-9------------------------|
----------------------|-----------------------|--------------------------|
----------------------|-----------------------|--------------------------|
----------------------|-----------------------|--------------------------|