Ads

Crystal Energy Solo (Mai Otome) Guitar Tab

Submitted: Mar 17, 2009 by CpxAzn (Last updated: Mar 17, 2009)

0
Download | Listen
Game: Mai Otome
Composer(s): Minami Kuribayashi
Style: Transcription

AutoScroll: Slow | Medium | Fast

Here's the tab to the solo of Crystal Energy. I've had this tabbed for a while but finally decided to post it up.

                              Crystal Energy Solo                               


                                                              Kuribayashi Minami
Solo Guitar



     Intro                                                          
     S      S S  S  H          E  E     E  E   H          E   E     
E||----------------------------------|--------10~---------L--------|
B||-------8-10-12~-------------L--7--|--L--8-----------------10br--|
G||--9-11----------------------------|-----------------------------|
D||----------------------------------|-----------------------------|
A||----------------------------------|-----------------------------|
E||----------------------------------|-----------------------------|


   E   Q     E  Q     Q       Q     Q    Q     Q         W                  
---------------------------|------------------10s----|--12~----------------|
---L--10----12-------------|-------10----7-----------|---------------------|
----------------9~----L----|--7----------------------|---------------------|
---------------------------|-------------------------|---------------------|
---------------------------|-------------------------|---------------------|
---------------------------|-------------------------|---------------------|



   Solo                                       
   E  S  S S  S S  S S  S  S  S S  S  S  S  
|-------------------------------9----------|
|--9-------9----9-11-9-12-11-12---12-11-12-|
|-----9-11---11----------------------------|
|------------------------------------------|
|------------------------------------------|
|------------------------------------------|


   S  S  S  S  S  S S  S S  S S S S S S S  
-----14-12-14-11-14-9-14-7-11-9-7-6-9-7-6-|
------------------------------------------|
--11--------------------------------------|
------------------------------------------|
------------------------------------------|
------------------------------------------|


  S S  S  S  S S   S  S  S  S   S  S  S  S  S  S  
-------------------------------------------------|
--8---------11----------14-----------17-------17-|
----6s-9-12----9s-12-15----12s-15-18----15-18----|
-------------------------------------------------|
-------------------------------------------------|
-------------------------------------------------|


   S   S  S  S  S  S S S S  S S S  S S E     E  S S S S S S S S S S  S S S  S  
--16p-11-------11p-7-----7-11-9-7---------|---------------6-7-6-7-9-11-7-9-11-|
---------12----------9------------11-9-7--|--6--6-7-9-7-9---------------------|
------------13---------8------------------|-----------------------------------|
------------------------------------------|-----------------------------------|
------------------------------------------|-----------------------------------|
------------------------------------------|-----------------------------------|


   S  S  S S  S   S  S  S  T  T  T  T  T  T  T  T T T T T T T T T  
--13p-9----9------------------------------------------------------|
--------------------------18-17-16-15-14-13-12-11-9-8-7-6-5-4-3-2-|
--------13---13p-10----10-----------------------------------------|
--------------------11--------------------------------------------|
------------------------------------------------------------------|
------------------------------------------------------------------|


   S  S  S  S  S S   S  S  S  S  S S   S  S  S  S  
--14p-9----------9h-14p-9----------9h-14p-9-------|
--------12----12----------12----12----------12----|
-----------11----------------11----------------11-|
--------------------------------------------------|
--------------------------------------------------|
--------------------------------------------------|


   S  S  S  S  S S   S  S  S  S  S S   S  S  S  S  
--14p-9----------9h-14p-9----------9h-14p-9-------|
--------11----11----------11----11----------11----|
-----------11----------------11----------------11-|
--------------------------------------------------|
--------------------------------------------------|
--------------------------------------------------|


   S   S  S  S  S  S   S   S  S  S  S  S   S   S  S  S     W                    
--16p-11----------11h-16p-11----------11h-16p-11-------|--16b~----------------||
---------14----14------------14----14------------14----|----------------------||
------------13------------------13------------------13-|----------------------||
-------------------------------------------------------|----------------------||
-------------------------------------------------------|----------------------||
-------------------------------------------------------|----------------------||




Duration Legend
---------------
W - whole
H - half
Q - quarter
E - 8th
S - 16th
T - 32nd
X - 64th
. - note dotted
|-n-|  - n-tuplets


Tablature Legend
----------------
L - tied note
x - dead note
g - grace note
(n) - ghost note
> - accentuded note
NH - natural harmonic
AH - artificial harmonic
TH - tapped harmonic
SH - semi harmonic
PH - pitch harmonic
h - hammer on
p - pull off
b - bend
br - bendRelease
pb - preBend
pbr - preBendRelease
brb - bendReleaseBend
\n/ - tremolo bar dip
\n - tremolo bar dive
-/n - tremolo bar Release up
/n\ - tremolo bar inverted dip
/n - tremolo bar return
-\n - tremolo bar Release down
S - shift slide
s - legato slide
/ -  slide into from below or out of upwards
\ -  slide into from above or out of downwards
~ - vibrato
W - wide vibrato
tr - trill
TP - tremolo picking
T - tapping
S - slap
P - pop
< - fade in
^ - brush up
v - brush down
Login or Register to remove this ad.