Ads

Never (Kaiba) Guitar Tab

Submitted: May 04, 2008 by Kabukibear (Last updated: Nov 27, 2009)

5
Average: 5 (6 votes)
Download | Listen
Game: Kaiba
Composer(s): Seira
Style: 2 or more instruments, Arrangement, Fingerstyle

This song is also called Kaiba - OP

AutoScroll: Slow | Medium | Fast
Never                                       
~Kaiba~
Performed by: Seira
Arranged/Tabbed: Justin Lincoln


Vocal/Guitar 1



                                                Eyes    still   
     W                H           Q.     Q.     Q.      Q.      
E||----------------------------|-------------------------------|
B||----------------------------|----------------7------10------|
G||----------------------------|-------------------------------|
D||----------------------------|-------------------------------|
A||----------------------------|-------------------------------|
E||----------------------------|-------------------------------|


  closed-      Sun-   shi- ne    shone        Through the     
  H.           Q.     Q    E     H.           Q.      Q.      
----------------------7----5--|--5---------------------------|
------------------------------|---------------7-------8------|
--7------------7--------------|------------------------------|
------------------------------|------------------------------|
------------------------------|------------------------------|
------------------------------|------------------------------|


     cur-   tains  at     my        eyes        I       a-    
     Q.     Q.     Q.     Q.        H.           Q.      Q.      
---------------------------------|------------------------------|
--8g10------7-------------8------|--7------------7------10------|
-------------------9-------------|------------------------------|
---------------------------------|------------------------------|
---------------------------------|------------------------------|
---------------------------------|------------------------------|


  woke         to      yo-    ur     voice-       thin-  king    
  H.           Q.      Q      E      H.           Q.     Q.      
---------------------------------|------------------------------|
---------------0------12S----10--|--10------------7------8------|
--7------------------------------|------------------------------|
---------------------------------|------------------------------|
---------------------------------|------------------------------|
---------------------------------|------------------------------|


   you'll be     by     my        side                  You and  
   Q.     Q.     Q.     Q.        W                Q    E   E    
-------------------------------|--------------------------------|
--10------7------5------8------|--7----------------L----0---2---|
-------------------------------|--------------------------------|
-------------------------------|--------------------------------|
-------------------------------|--------------------------------|
-------------------------------|--------------------------------|


  I      were   close  at        hea-        rt          ple-ase  
  Q.     Q.     Q.     Q.        H        E  E  H        E    E    
------------------------------|-----------------------------------|
--3------0------3------5------|--7--------L--3--L--------0----2---|
------------------------------|-----------------------------------|
------------------------------|-----------------------------------|
------------------------------|-----------------------------------|
------------------------------|-----------------------------------|


  say       that we'llbe     not  ap-    art                   Ti- me  
  Q.     E  E    E    Q.     Q    E      W                Q    E   E   
--------------------------------------|-------------------------------|
--3------L--2----0--------------------|------------------------0---2--|
----------------------2------0----0---|--2----------------------------|
--------------------------------------|-------------------------------|
--------------------------------------|-------------------------------|
--------------------------------------|-------------------------------|


  went   to0    fast   to-        feel      yo- ur  warmth      a- nd  
  Q.     Q.     Q.     Q    E     Q.     E  E   E   Q.      E   E  E   
-----------------------7----5--|--5------L---------------------10--9--|
--3------0------3--------------|------------7---8--10-------L---------|
-------------------------------|--------------------------------------|
-------------------------------|--------------------------------------|
-------------------------------|--------------------------------------|
-------------------------------|--------------------------------------|


      love-                                 Ne-     ver     too     
  E   Q     E   W                   Q.      Q.      Q.      Q.      
--L------------------------------|---------10-------9--------------|
-----10-----L---L----------------|---------10------10------10------|
---------------------------------|-------------------------11------|
---------------------------------|---------------------------------|
---------------------------------|---------------------------------|
---------------------------------|---------------------------------|


  wrong       your heart-             Al-  ways   be- side you    That's  
  H        E  E    Q      H           Q    Q.     E   Q    Q.     E       
--7--------L-----------------------|-------------------------------------|
--8--------L--3----3------L--------|--5----7----------5----7-------------|
--------------4----4------L--------|--------------7----------------------|
-----------------------------------|------------------------------7------|
-----------------------------------|-------------------------------------|
-----------------------------------|-------------------------------------|


  all       I-    wished   for-              Ne-     ver     too     
  Q.     E  E  E  Q.       Q.        Q.      Q.      Q.      Q.      
----------------------------------|---------10-------9--------------|
--7------L--8--7------------------|---------10------10------10------|
------------------7------7g9------|-------------------------11------|
----------------------------------|---------------------------------|
----------------------------------|---------------------------------|
----------------------------------|---------------------------------|


   sad          your heart             Can't bear         los- ing       
   H         E  E    Q     H           Q     E    Q    E  Q    H         
------------------------------------|-----------------------------------|
--12---------L--3----3-----L--------|--5-----7----L----L--5----7--------|
--12---------L--4----3-----L--------|-----------------------------------|
------------------------------------|-----------------------------------|
------------------------------------|-----------------------------------|
------------------------------------|-----------------------------------|


  My-             ev-    ery-       thi-      ng                    
  Q.     E  E  E  Q.     Q    E     Q      E  Q.     Q.     Q.      
---------------------------------|---------------------------------|
--7------L--8--7-----------------|---------------------------------|
------------------7------9----7--|--9----7g9--7------L------L------|
---------------------------------|---------------------------------|
---------------------------------|---------------------------------|
---------------------------------|---------------------------------|


  W                H          
----------------------------||
----------------------------||
----------------------------||
----------------------------||
----------------------------||
----------------------------||




Duration Legend
---------------
W - whole
H - half
Q - quarter
E - 8th
S - 16th
T - 32nd
X - 64th
. - note dotted
|-n-|  - n-tuplets


Tablature Legend
----------------
L - tied note
g - grace note
S - shift slide



================================================================================

Never                                       
~Kaiba~
Performed by: Seira
Arranged/Tabbed by: Justin Lincoln


Guitar 2



     >  >   >   >  >   >   >  >   >   >  >   >    
     E  S S S S E  S S S S E  S S S S E  S S S S  
E||--0----0-----0----0-----0----0-----0----0-----|
B||-----3-----3----3-----3----3-----3----3-----3-|
G||---------2----------2----------2----------2---|
D||----------------------------------------------|
A||----------------------------------------------|
E||----------------------------------------------|


  >  >   >   >  >   >   >  >   >   >  >   >    
  E  S S S S E  S S S S E  S S S S E  S S S S  
--0----0-----0----0-----0----0-----0----0-----|
-----3-----3----3-----3----3-----3----3-----3-|
---------2----------2----------2----------2---|
----------------------------------------------|
----------------------------------------------|
--2----------------------------L--------------|


  >  >   >   >  >   >   >  >   >   >  >   >    
  E  S S S S E  S S S S E  S S S S E  S S S S  
--0----0-----0----0-----0----0-----0----0-----|
-----3-----3----3-----3----3-----3----3-----3-|
---------2----------2----------2----------2---|
----------------------------------------------|
----------------------------------------------|
--3----------------------------L--------------|


  >  >   >   >  >   >   >  >   >   >  >   >    
  E  S S S S E  S S S S E  S S S S E  S S S S  
--0----0-----0----0-----0----0-----0----0-----|
-----3-----3----3-----3----3-----3----3-----3-|
---------2----------2----------2----------2---|
----------------------------------------------|
--2----------------------------L--------------|
----------------------------------------------|


  >  >   >   >  >   >   >  >   >   >  >   >    
  E  S S S S E  S S S S E  S S S S E  S S S S  
--0----0-----0----0-----0----0-----0----0-----|
-----3-----3----3-----3----3-----3----3-----3-|
---------2----------2----------2----------2---|
----------------------------------------------|
--0----------------------------L--------------|
----------------------------------------------|


  >  >   >   >  >   >   >  >   >   >  >   >    
  E  S S S S E  S S S S E  S S S S E  S S S S  
--0----0-----0----0-----0----0-----0----0-----|
-----3-----3----3-----3----3-----3----3-----3-|
---------2----------2----------2----------2---|
----------------------------------------------|
----------------------------------------------|
--2----------------------------L--------------|


  >  >   >   >  >   >   >  >   >   >  >   >    
  E  S S S S E  S S S S E  S S S S E  S S S S  
--0----0-----0----0-----0----0-----0----0-----|
-----3-----3----3-----3----3-----3----3-----3-|
---------2----------2----------2----------2---|
----------------------------------------------|
----------------------------------------------|
--3----------------------------L--------------|


  >  >   >   >  >   >   >  >   >   >  >   >    
  E  S S S S E  S S S S E  S S S S E  S S S S  
--0----0-----0----0-----0----0-----0----0-----|
-----3-----3----3-----3----3-----3----3-----3-|
---------2----------2----------2----------2---|
----------------------------------------------|
--2----------------------------L--------------|
----------------------------------------------|


  >  >   >   >  >   >   >      >   >  >   >    
  E  S S S S E  S S S S E  S S S S E  S S S S  
--0----0-----0----0-----0----0-----0----0-----|
-----3-----3----3-----3----2-----2----2-----2-|
---------2----------2----------2----------2---|
----------------------------------------------|
--0----------------------------L--------------|
----------------------------------------------|


      ^ v  ^  v     ^   ^ v  ^  v            ^ v  ^  v     ^   ^ v  ^     ^   
  E.  S E  E  E  E  E.  S E  E  E  E     E.  S E  E  E  E  E.  S E  E  E  E   
------0-0--0--0-----0---0-0--0--0-----|------0-0--0--0-----0---0-0--0-----0--|
------3-3--3--3-----3---3-3--3--3-----|------3-3--3--3-----3---3-3--3-----3--|
------2-2--2--2-----2---2-2--2--2-----|------2-2--2--2-----2---2-2--2-----2--|
------0-0--0--0-----0---0-0--0--0-----|------0-0--0--0-----0---0-0--0-----0--|
--------------------------------------|--------------------------------------|
--2--------------2-----------------2--|--3--------------3--------------3-----|


      ^ v  ^  v     ^   ^ v  ^  ^            ^ v  ^  v     ^   ^ v  ^  ^ v ^ v  
  E.  S E  E  E  E  E.  S E  E  E  E     E.  S E  E  E  E  E.  S E  E  S S S S  
------0-0--0--0-----0---0-0--0--0-----|------0-0--0--0-----0---0-0--0--0-0-0-0-|
------3-3--3--3-----3---3-3--3--3-----|------3-3--3--3-----2---2-2--2--2-2-2-2-|
------2-2--2--2-----2---2-2--2--2-----|------2-2--2--2-----2---2-2--2--2-2-2-2-|
------0-0--0--0-----0---0-0--0--0-----|------0-0--0--0-----2---2-2--2--2-2-2-2-|
--2--------------2-----------------2--|--0--------------0--0---0-0--0--0-0-0-0-|
--------------------------------------|----------------------------------------|


  ^   ^ v  ^  v  ^  ^   ^ v  ^  v  ^     ^   ^ v  ^  v  ^  ^   ^ v  ^  ^ v ^ v  
  E.  S E  E  E  E  E.  S E  E  E  E     E.  S E  E  E  E  E.  S E  E  S S S S  
--0---0-0--0--0-----0---0-0--0--0--0--|--0---0-0--0--0-----0---0-0--0--0-0-0-0-|
--3---3-3--3--3-----3---3-3--3--3--3--|--3---3-3--3--3-----3---3-3--3--3-3-3-3-|
--2---2-2--2--2--2--2---2-2--2--2--2--|--2---2-2--2--2--2--2---2-2--4--4-4-4-4-|
--0---0-0--0--0--0--0---0-0--0--0--0--|--0---0-0--0--0--0--0---0-0--0--0-0-0-0-|
--------------------------------------|----------------------------------------|
--2---2-2--2--2--2--2---2-2--2--2--2--|--3---3-3--3--3--3--3---3-3--3--3-3-3-3-|


  ^   ^ v  ^  v  ^  ^   ^ v  ^  ^ v ^   
  E.  S E  E  E  E  E.  S E  E  S S E   
--0---0-0--0--0-----0---0-0--0--0-0-0--|
--3---3-3--3--3-----3---3-3--3--3-3-3--|
--2---2-2--2--2--2--2---2-2--2--2-2-2--|
--0---0-0--0--0--0--0---0-0--0--0-0-0--|
--2---2-2--2--2--2--2---2-2--2--2-2-2--|
---------------------------------------|


  ^   ^ v  ^  ^  ^  ^   ^ v  ^  ^ v ^ v  
  E.  S E  E  E  E  E.  S E  E  S S S S  
--0---0-0--0-----0--0---0-0--3--3-3-3-3-|
--3---3-3--3-----3--2---2-2--2--2-2-2-2-|
--2---2-2--2--2--2--2---2-2--2--2-2-2-2-|
--2---2-2--2--2--2--2---2-2--2--2-2-2-2-|
--0---0-0--0--0--0--0---0-0--0--0-0-0-0-|
----------------------------------------|


  ^ v  v  v ^  ^ v ^ v ^ v  v  v ^  ^ v ^ v  
  S E  E  S E  S S S S S E  E  S E  S S S S  
--2-2--2--2-2--2-2-2-2-2-2--2--2-2--2-2-2-2-|
--3-3--3--3-3--3-3-3-3-2-2--2--2-2--2-2-2-2-|
--2-2--2--2-2--2-2-2-2-2-2--2--2-2--2-2-2-2-|
--0-0--0--0-0--0-0-0-0-0-0--0--0-0--0-0-0-0-|
--0-0--0--0-0--0-0-0-0-0-0--0--0-0--0-0-0-0-|
--2-------2-2--2-2-2-2-2-------2-2--2-2-2-2-|


  ^ v  v  v ^  ^ v ^ v ^ v  v  v ^  ^ v ^ v  
  S E  E  S E  S S S S S E  E  S E  S S S S  
--3-3--3--3-3--3-3-3-3-3-3--3--3-3--3-3-3-3-|
--0-0--0--0-0--0-0-0-0-0-0--0--0-0--0-0-0-0-|
--0-0--0--0-0--0-0-0-0-0-0--0--0-0--0-0-0-0-|
--0-0--0--0-0--0-0-0-0-0-0--0--0-0--0-0-0-0-|
--------------------------------------------|
--3-3--3--3-3--3-3-3-3-3-3--3--3-3--3-3-3-3-|


  ^ v  v  v ^  ^ v ^ v ^ v  v  v ^  ^ v ^ v  
  S E  E  S E  S S S S S E  E  S E  S S S S  
--2-2--2--2-2--2-2-2-2-2-2--2--2-2--2-2-2-2-|
--3-3--3--3-3--3-3-3-3-3-3--3--3-3--3-3-3-3-|
--2-2--2--2-2--2-2-2-2-2-2--2--2-2--2-2-2-2-|
--0-0--0--0-0--0-0-0-0-0-0--0--0-0--0-0-0-0-|
--2-2--2--2-2--2-2-2-2-2-2--2--2-2--2-2-2-2-|
--------------------------------------------|


  ^ v  v  v ^  ^ v ^ v ^ v  v  v ^  ^ v ^ v  
  S E  E  S E  S S S S S E  E  S E  S S S S  
--2-2--2--2-2--2-2-2-2-0-0--0--0-3--3-3-3-3-|
--3-3--3--3-3--3-3-3-3-2-2--2--2-2--2-2-2-2-|
--2-2--2--2-2--2-2-2-2-2-2--2--2-2--2-2-2-2-|
--2-2--2--2-2--2-2-2-2-2-2--2--2-2--2-2-2-2-|
--0-0--0--0-0--0-0-0-0-0-0--0--0-0--0-0-0-0-|
--------------------------------------------|


  ^ v  v  v ^  ^ v ^ v ^ v  v  v ^  ^ v ^ v  
  S E  E  S E  S S S S S E  E  S E  S S S S  
--2-2--2--2-2--2-2-2-2-2-2--2--2-2--2-2-2-2-|
--3-3--3--3-3--3-3-3-3-2-2--2--2-2--2-2-2-2-|
--2-2--2--2-2--2-2-2-2-2-2--2--2-2--2-2-2-2-|
--0-0--0--0-0--0-0-0-0-0-0--0--0-0--0-0-0-0-|
--0-0--0--0-0--0-0-0-0-0-0--0--0-0--0-0-0-0-|
--2-------2-2--2-2-2-2-2-------2-2--2-2-2-2-|


  ^ v  v  v ^  ^ v ^ v ^ v  v  v ^  ^ v ^ v  
  S E  E  S E  S S S S S E  E  S E  S S S S  
--3-3--3--3-3--3-3-3-3-3-3--3--3-3--3-3-3-3-|
--0-0--0--0-0--0-0-0-0-3-3--3--3-3--3-3-3-3-|
--0-0--0--0-0--0-0-0-0-3-3--3--3-3--3-3-3-3-|
--0-0--0--0-0--0-0-0-0-0-0--0--0-0--0-0-0-0-|
--------------------------------------------|
--3-3--3--3-3--3-3-3-3-3-3--3--3-3--3-3-3-3-|


  ^ v  v  v ^  ^ v ^ v ^ v  v  v ^  ^ v ^ v  
  S E  E  S E  S S S S S E  E  S E  S S S S  
--2-2--2--2-2--2-2-2-2-2-2--2--2-2--2-2-2-2-|
--3-3--3--3-3--3-3-3-3-3-3--3--3-3--3-3-3-3-|
--2-2--2--2-2--2-2-2-2-2-2--2--2-2--2-2-2-2-|
--0-0--0--0-0--0-0-0-0-0-0--0--0-0--0-0-0-0-|
--2-2--2--2-2--2-2-2-2-2-2--2--2-2--2-2-2-2-|
--------------------------------------------|


  ^ v  v  v ^  ^ v ^ v ^ v  v  v ^  ^  ^   
  S E  E  S E  S S S S S E  E  S E  E  E   
--2-2--2--2-2--2-2-2-2-0-0--0--0----------|
--3-3--3--3-3--3-3-3-3-2-2--2--2-2-----2--|
--2-2--2--2-2--2-2-2-2-2-2--2--2-2--2--2--|
--2-2--2--2-2--2-2-2-2-2-2--2--2-2--2--2--|
--0-0--0--0-0--0-0-0-0-0-0--0--0-0--0--0--|
------------------------------------------|


  ^ v  v  v ^  ^  ^  ^ v  v  v ^  ^  ^     ^ v  v  v ^  ^  ^  ^              
  S E  E  S E  E  E  S E  E  S E  E  E     S E  E  S E  E  E  H.             
--0-0--0--0-0--0--0--0-0--0--0-0--0--0--|--0-0--0--0-0--0--0--2------------||
--3-3--3--3-3--3--3--3-3--3--3-3--3--3--|--3-3--3--3-3--3--3--3------------||
--2-2--2--2-2--2--2--2-2--2--2-2--2--2--|--2-2--2--2-2--2--2--2------------||
--0-0--0--0-0--0--0--0-0--0--0-0--0--0--|--0-0--0--0-0--0--0--0------------||
----------------------------------------|----------------------------------||
----------------------------------------|----------------------------------||




Duration Legend
---------------
W - whole
H - half
Q - quarter
E - 8th
S - 16th
T - 32nd
X - 64th
. - note dotted
|-n-|  - n-tuplets


Tablature Legend
----------------
L - tied note
> - accentuded note
^ - brush up
v - brush down
Login or Register to remove this ad.

4 comments on Never

The melody of this song

The melody of this song makes me want to friggin cry, dammit. lol

Release a video of this,

Release a video of this, we'll see if your voice is as good as your guitar skills. ;)

lol it absolutely is not,

lol it absolutely is not, which is why I play. ;)

How about release a video of

5

How about release a video of you playing this song :)