Ads

Bodhisattva Cathedral (Hellsing) Guitar Tab

Submitted: Mar 06, 2009 by telamon

5
Average: 5 (1 vote)
Download | Listen
Game: Hellsing
Composer(s): Yasushi Ishii
Style: Transcription

AutoScroll: Slow | Medium | Fast
Hellsing OST intro theme - Bodhisattva Cathedral
Transcribed by telamon ([email protected]) 2007-01-04
The note spacings are incorrect, listen to the track for correct timing.


e|15--------------------------15---|15----------------------15-----|13------------------13---|
B|---------------------------------|-------------------------------|-------------------------|
G|----------12----12---------------|---------13-----13-------------|-------13-----13---------|
D|-------------13------------------|------------13-----------------|----------13-------------|
A|-------15-----------15--------15-|-----15-----------15------15---|----15-----------15---15-|
E|---------------------------------|-------------------------------|-------------------------|


e|16-------------------16----|15------------------15--|15-------------------15---|13-------------------13--|
B|---------------------------|------------------------|--------------------------|-------------------------|
G|-------13----13------------|-------12----12---------|------13----13------------|--------14----14---------|
D|----------13---------------|----------13------------|---------13---------------|-----------13------------|
A|----15---------15-------15-|----15----------15----15|----15----------15-----15-|-----15----------15----15|
E|---------------------------|------------------------|--------------------------|-------------------------|


e|15--------------------15-----|11--------------------11----|13--------------------13---|
B|-----------------------------|----------------------------|---------------------------|
G|---------13----13------------|--------12----12------------|--------13----13-----------|
D|------------12---------------|-----------13---------------|-----------12--------------|
A|------13---------13------13--|-----13----------13------13-|-----13----------13-----13-|
E|-----------------------------|----------------------------|---------------------------|


e|15-------------------15--|11----------------------|13------------------|13---------------------11---|
B|-------------------------|------------------------|--------------------|----------------------------|
G|------13----13-----------|----------12----12------|--------------------|---------12----12-----------|
D|---------12--------------|-------------13---------|--------------------|------------13--------------|
A|---14----------14------14|------15-----------15---|--------------------|-----11-----------11-----11-|
E|-------------------------|------------------------|--------------------|----------------------------|


e|10--------------------10---|10------------------10----|10-------------10------|11---------------11--|
B|---------------------------|--------------------------|-----------------------|------9----9---------|
G|---------11----11----------|-------11----11-----------|-----12---12-----------|---------------------|
D|------------10-------------|----------10--------------|--------9--------------|--------10-----------|
A|-----12-----------12----12-|----11----------11-----11-|--10---------10-----10-|----8--------8-----8-|
E|---------------------------|--------------------------|-----------------------|---------------------|


e|10----------------10---|10-------------------10---|15-------------------15-----|
B|-----------------------|--------------------------|----------------------------|
G|-------11----11--------|------14----14------------|-------13----13-------------|
D|----------10-----------|---------13---------------|----------12----------------|
A|--9-------------9---9--|----14--------14-------14-|----14---------14-------14--| and back to the beginning.
E|-----------------------|--------------------------|----------------------------|
Login or Register to remove this ad.

5 comments on Bodhisattva Cathedral

This song is La Catedral by

This song is La Catedral by Barrios, you can find the tab here http://www.classtab.org/barrios_la_catedral_1_prelude.txt

15 on the A string? Really?

15 on the A string? Really? *digs out Youtube videos of people playing it*

http://www.youtube.com/watch?v=Du4F4mQkXRo

Yeah it doesn't look like that's what is done...I mean you could on an electric but...

[edit] yeah, they just play an open B string which is the same thing as 15 on A. way way more doable. :-)

musenji said 15 on the A

musenji said

15 on the A string? Really? *digs out Youtube videos of people playing it*

http://www.youtube.com/watch?v=Du4F4mQkXRo

Yeah it doesn't look like that's what is done...I mean you could on an electric but...

[edit] yeah, they just play an open B string which is the same thing as 15 on A. way way more doable. :-)

Isn't 15 on A string C, not B?

I didn't look at the video,

I didn't look at the video, but maybe they're playing it transposed one fret?

Just to be clear, which

[edit] holy crap I was missing some info. Hmm.

[edit 2] yep, the tab provided here is transposed up one fret. So you can just play the one Choogly linked to, with a capo on 1, and it will still be a lot easier than playing 15 on A.