Ads

Believe Solo (Gundam SEED) Guitar Tab

Submitted: Mar 17, 2009 by CpxAzn (Last updated: Mar 17, 2009)

5
Average: 5 (1 vote)
Download | Listen
Game: Gundam SEED
Composer(s): Toshihiko Sahashi
Style: Transcription

AutoScroll: Slow | Medium | Fast

Here's the tabs for the solo of Believe by Nami Tamaki!

                                 Believe Solo                                   


                                                                     Nami Tamaki
Solo Guitar



                                       PH              PH              
      H           E   E   E   E        E.     S  E     Q     Q     E   
E||------------------------------|------------------------------------|
B||--14-----------L--------------|------------------------------------|
G||--13b~---------L--13--11--13--|--<>13br---11-13--<>11----10----11--|
D||------------------------------|------------------------------------|
A||------------------------------|------------------------------------|
E||------------------------------|------------------------------------|


   S  S  S  S  S  S  S  S  S  S  S  S  S  S  S  S  
--------------------------------------11-13-14-13-|
-----------------------------11-12-14-------------|
--10-11-10----------10-11-13----------------------|
-----------13-11-13-------------------------------|
--------------------------------------------------|
--------------------------------------------------|


                        W                                               
   S  S  S  S  S  E     Q.      S  S  S     Q.      S  S  E.   E.   E   
--11-14-11------------------------------|------------------------------|
-----------14-11-14--<>14b--------------|--16------16-16-16---18---19--|
----------------------------------15-15-|------------------------------|
----------------------------------------|------------------------------|
----------------------------------------|------------------------------|
----------------------------------------|------------------------------|


                             |---6---|   |---6---|   |---6---|   |---6---|   
   Q     Q     Q     Q       E   E   E   E   E   E   E   E   E   E   E   E   
--------------------------|-------------------------------------------------|
--18----16----------------|-------------------------------------------------|
--------------18----17----|-------------------------------------------------|
--------------------------|--8--10--11--10--11--13--11--13--15--13--15--16--|
--------------------------|-------------------------------------------------|
--------------------------|-------------------------------------------------|


                                       |-------5-------|  
   S  S  S  S  S  S  S  S  S  S  S  S  S   S   S   S   S  
-----------------------------13-14-16-13h-14h-16p-14p-13-|
--------------------13-14-16-----------------------------|
-----------11-13-15--------------------------------------|
--11-13-15-----------------------------------------------|
---------------------------------------------------------|
---------------------------------------------------------|


   W                   
--18~----------------||
---------------------||
---------------------||
---------------------||
---------------------||
---------------------||




Duration Legend
---------------
W - whole
H - half
Q - quarter
E - 8th
S - 16th
T - 32nd
X - 64th
. - note dotted
|-n-|  - n-tuplets


Tablature Legend
----------------
L - tied note
x - dead note
g - grace note
(n) - ghost note
> - accentuded note
NH - natural harmonic
AH - artificial harmonic
TH - tapped harmonic
SH - semi harmonic
PH - pitch harmonic
h - hammer on
p - pull off
b - bend
br - bendRelease
pb - preBend
pbr - preBendRelease
brb - bendReleaseBend
\n/ - tremolo bar dip
\n - tremolo bar dive
-/n - tremolo bar Release up
/n\ - tremolo bar inverted dip
/n - tremolo bar return
-\n - tremolo bar Release down
S - shift slide
s - legato slide
/ -  slide into from below or out of upwards
\ -  slide into from above or out of downwards
~ - vibrato
W - wide vibrato
tr - trill
TP - tremolo picking
T - tapping
S - slap
P - pop
< - fade in
^ - brush up
v - brush down
Login or Register to remove this ad.