Ads

Mukashi no Yuujin ga Kawarazu ni iru Toiu no mo Waruku nai Mono da na (Gintama) Guitar Tab

Submitted: Nov 25, 2008 by yoshistrings (Last updated: Jan 05, 2015)

5
Average: 5 (5 votes)
Download | Listen
Game: Gintama
Composer(s): Audio Highs
Style: Fingerstyle, Transcription

AutoScroll: Slow | Medium | Fast
Gintama- Mukashi no Yuujin ga Kawarazu ni iru Toiu no mo Waruku nai Mono da na.. guitar tab

tabbed by yoshistrings
|-------------3-----------|-------------|-3------------|
|-------0-----------0-----|-------0-----|-------0------|
|----0-----0-----0-----0--|----0-----0--|----0-----0---|
|-------------------------|-------------|--------------|
|-------------------------|-------------|--------------|
|-3-----------------------|-3-----------|--------------|


|-3--------5--7--------8--7-----------0----------|
|-------0-----------0-----------0-----------0----|
|----0-----0-----0-----0-----0-----0-----0-------|
|------------------------------------------------|
|------------------------------------------------|
|-3-----------2-----------0----------------------|


|-7--8-------7--5-------7--5-------------|
|---------1----------1-----------1-------|
|-0----0-----0----0-----0-----0-----0----|
|----------------------------------------|
|--------------------------0-------------|
|----8----------7------------------------|


|-10--8--7--5--3----------0-----2--3--5--------7--7----|
|-------------------1-----------1-----------0-----8----|
|--------7--2----0-----0-----0-----0-----0-----0-------|
|--0--7------------------------------------------------|
|--------------3---------------------------------------|
|-------------------------------------3----------------|


|----------5--------3--2--------2-------3-----------|
|----0-----------1-----------1----------0-----0-----|
|-0-----0-----0-----0-----2-----2-------0--0-----0--|
|----------------------0----------------0-----------|
|----------0----------------------------2-----------|
|---------------------------------------3-----------|


|-3----3--2-----------5--7---------8--7----|
|-0----------3-----0------------0----------|
|-0-------------0-----0------0-----0-------|
|-0----------------------------------------|
|-2----------------------------------------|
|-3----------3-----------2------------0----|


|----------0---------7--8---------7--5---------7--5--------------|
|----0-----------0------------1------------1------------1--------|
|-0-----0-----0------0-----0------0-----0------0-----0------0----|
|----------------------------------------------------------------|
|-------------------------------------------------0--------------|
|-----------------------8------------7---------------------------|


|-10--8--7--5---3------------0-----2--3---5--------7---7---|
|---------------------1------------1------------0------8---|
|--------7--2------0-----0------0-----0------0-----0-------|
|--0--7----------------------------------------------------|
|---------------3------------------------------------------|
|-----------------------------------------3----------------|


|----------5---------3--2---------2------3-----------3-|
|----0------------1------------1-------0-------0-------|
|-0-----0------0-----0------2-----2--0------0-----0----|
|-----------------------0------------------------------|
|----------0-------------------------------------------|
|------------------------------------------------------|


|-------------------0--2--3--2--3--5-----------0------|
|----0-----------0-----------0-----------1------------|
|-0-----0-----0-----0-----0-----0-----0-----0-----0---|
|-----------------------------------------------------|
|----------------------------------3------------------|
|----------0-----------0------------------------------|


|----------------2--3--5--3--5--7-----------3----------|
|-1-----------1-----------1-----------0-----------0----|
|----0-----2-----2-----2-----2-----0-----0-----0-----0-|
|-------0-----------0----------------------------------|
|------------------------------------------------------|
|-------------------------------3----------------------|


|----------7--8--10--8--7--3-----------0--------3----|
|-------3-----8------3-----------1-----------1-------|
|----2------------------2-----0-----0-----0-----0----|
|----------7------7----------------------------------|
|-2------------------------3-------------------------|
|----------------------------------------------------|


|-5------------9-----------10--------3--2----|
|-------1------------2------------1----------|
|----0-----0------2-----2---7--2-------------|
|-0-----------11-----------------------------|
|--------------------------------------------|
|--------------------------------------------|


|-3--------5--7--------8--7-----------0--------7----|
|-------0-----------0-----------0-----------0-------|
|----0-----0-----0-----0-----0-----0-----0-----0----|
|---------------------------------------------------|
|---------------------------------------------------|
|-3-----------2-----------0-------------------------|


|-8--------7--5--------7--5-----------2--------2----|
|-------1-----------1-----------1-----------1-------|
|----0-----0-----0-----0-----0-----0-----2----------|
|---------------------------------------------------|
|-------------2-----------0-------------------------|
|-8-------------------------------------------------|


|-3-----------0--5--3--5--7-----------3-------------|
|-------1-----------1-----------0-----------0-------|
|----0-----0-----0-----0-----0-----0-----0-----0----|
|---------------------------------------------------|
|---------------------------------------------------|
|-3-----------------------3-------------------------|


|-5--------3--2--------2--3-----------3--------3----|
|-------1--5--------1-----------0-----------0-------|
|----0-----------2-----------0-----0-----0----------|
|-------------0-------------------------------------|
|-0-------------------------------------------------|
|-------------------------3-------------------------|


|-5--------3--10--8--7--5--3-----------3-------------|
|-------1--5---------------------0-----------0-------|
|----0------------------------0-----0-----0-----0----|
|----------------------------------------------------|
|-0--------------------------------------------------|
|--------------------------3-------------------------|


|-5--------3---10--8--7--5---3------------3-----------|
|-------1--5-----------------------0------------0-----|
|----0--------------------------0-----0------0-----0--|
|-----------------------------------------------------|
|-0---------------------------------------------------|
|----------------------------3------------------------|


|-------------3-----------------------3-------------|
|-------0-----------0-----------0-----------0-------|
|----0-----0-----0-----0-----0-----0-----0-----0----|
|---------------------------------------------------|
|---------------------------------------------------|
|-3-----------------------3-------------------------|


|-----------3----|
|---------0------|
|-------0--------|
|-----0----------|
|---2------------|
|-3--------------|




Login or Register to remove this ad.

5 comments on Mukashi no Yuujin ga Kawarazu ni iru Toiu no mo Waruku nai Mono da na

there's an impossible strtch

there's an impossible strtch in here somewhere. When you get there, just play this

--10--
------
------
---7--
------
------

nicely done...

5

nicely done... they made an anime out of this? this one is probably my favorite one i've seen from you. so far..

thanks :) I'm getting into

thanks :) I'm getting into acoustic tabs now, so you'll see more stuff like this soon.

i know this is kind of late...

but thanks so much for tabbing my request!!! You have no idea how shocked I was when I opened the anime section and found gintama lol.
Quick question, are there tricks to playing this song smoothly? because the transitioning seems kinda abrupt to me mostly in the beginning and the middle.
i have no problem playing this song, as the stretches itself are hard, but definitely possible except for that impossible stretch that you mentioned. I just always seem to have trouble transitioning to different finger positions.

Thanks for the tab!!

Just found it 13 years later. Thanks :)