Ads

Lilium (Elfen Lied) Guitar Tab

Submitted: Dec 05, 2008 by Jakjer (Last updated: Dec 29, 2009)

5
Average: 5 (7 votes)
Download | Listen
Game: Elfen Lied
Composer(s): Kumiko Oguro
Style: Arrangement, Fingerstyle

AutoScroll: Slow | Medium | Fast
Arranged by usaguitarist 

|---9-|-----------------9-|----------7----|-----------4-0---|------------------|
|-7---|-9-----10-10---7---|-9-----10---10-|-7-------------3-|-5---------7------|
|-----|-----6-------------|-----6---------|---6-4-2-4-------|---4---------7----|
|-----|---6---------7-----|---6-----------|-0---------------|-----7-6-8-----11-|
|-----|-8---------9-------|-8--------9----|-----------------|-4-------9--------|
|-----|-------------------|---------------|-----------------|------------------|

|---------------7-|-------------------9-|-----------------9-|----------7-----|
|-----7--7-9-10---|-10-------10--9--7---|-9-----10-10---7---|-9-----10---10--|
|-7-9-------------|-------11----10------|-----6-------------|-----6----------|
|-----------------|----11-------11------|---6---------7-----|---6------------|
|-----------------|---------------------|-8---------9-------|-8--------9-----|
|-7------8--------|--9-----------9------|-------------------|----------------|

|-----------4-0---|------------------|---7-5-------------|----------9-10------10-|
|-7-------------3-|-5---------7------|-------9-7---------|----11-12------10-9----|
|---6-4-2-4-------|---4---------7----|-7---------10-8-10-|-11--------------------|
|-0---------------|-----7-6-8-----11-|-------------------|-------------9---------|
|-----------------|-4-------9--------|--------------8----|--9---------------7----|
|-----------------|------------------|-7---8---9---------|-----------------------|

|-9-12----9-8---------|-------------------|-------------9-|-----------------9-|
|------10---7-10-9----|-10-------12--9----|--(9)------7---|-9-----10-10---7---|
|-9---------8------11-|-------11----10----|-(10)----------|-----6-------------|
|-7---------7---------|----11-------11----|-(11)----------|---6---------7-----|
|-------9-------------|-------------------|---------------|-8---------9-------|
|----------------8----|--9-----------9----|--(9)----------|-------------------|

|----------7----|-----------4-0---|------------------|---7-5-------------|
|-9-----10---10-|-7-------------3-|-5---------7------|-------9-7---------|
|-----6---------|---6-4-2-4-------|---4---------7----|-7---------10-8-10-|
|---6-----------|-0---------------|-----7-6-8-----11-|-------------------|
|-8--------9----|-----------------|-4-------9--------|--------------8----|
|---------------|-----------------|------------------|-7---8---9---------|

|-------------2----*|
|------------------*|
|-11----------2----*|
|----9--------4----*|
|--9---12-11-------*|
|-------------2----*|
Login or Register to remove this ad.

1 comment on Lilium

dude, it's quite hard, but it

dude, it's quite hard, but it simply sounds amazing!
great work!