Login or Register to remove this ad.

Lilium (Elfen Lied) Guitar Tab

Submitted: Sep 29, 2007 by Kabukibear (Last updated: Jan 05, 2011)

4.6875
Average: 4.7 (16 votes)
Download | Listen
Game: Elfen Lied
Composer(s): Kumiko Oguro
Style: Arrangement, Fingerstyle

This song is also called Intro Song

AutoScroll: Slow | Medium | Fast
Lilium *Hard Version*
~Elfen Lied~
Composed By: Kumiko Oguro
Arranged By: Justin Lincoln

Tuning: Tune 5th string A down a 1/2 step to G#

*Note* Playing Instructions at bottom.

                           Segno
      H.           E  E       S S S S S S S S S S S S S S S S S S S S S S S S  
E ||------------------4--||---------------------0-----------------------------|
B ||---------------------||---4-----4-------------4---5-----5-----------9-----|
G ||---------------6-----||*------5---5-------5-----5-----6---6---6---6-------|
D ||---------------------||*----6-------6---6-----------6-------6---6-----7-6-|
G#||---------------------||---4-----------0-----------5-----------0-----------|
E ||---------------------||---------------------------------------------0-----|


  S S S S S S S S S S S S S S S S S S  
--------------------0-----------0-----|
--4-----4-------------4---7-----------|
------5---5-------5-----5-----6-----1-|
----6-------6---6-----------6-----2---|
--4-----------0-----------5-----------|
--------------------------------------|


  S S S S S S S S S S S S S S S S S S S S S S S S  
--------------------------------------------------|
--2-----2---------4-0-----0-----0---------2-------|
------2---2-------------2-----1---1---------------|
----2-------2---4-----1-----1-------1---3---7---6-|
--1-----------------1-----0-------------------5---|
--------------2-----------------------1-----4-----|

  1st ending------------------------------------,
  S S S S S S S. S. S. S. S S S S S S E.  S. S.   Da Coda on repeat
--------------------------0------------------4---||
------0----------4--5--7--------------4----------||
--2-----6-----------------------6-----5---6-----*||
----4-------6-4---------------6---6-------------*||
----------8---7-------------5-------5------------||
--2-----0-----------------4-----------4----------||

  2nd ending--------------------------,
  S S S S S S S S S S S S S S S S S S  
------2-0---------------------0-------|
------------4-2---1---------9---------|
--2-----------------3---5-6-----6-----|
----4-----2-----1-----1-----------6---|
--------------0-----0-----5---------8-|
--2-----3-----------------------------|


  S. S. S. S. S S S S S S S S S S S S S S S S S S  
-----------4--5---0-----5-4-5-7-0---4-2---0-------|
-----6--7-----------4-------------4-2-------4-----|
----------------2-----4-----------------2-----5---|
--------------------------------------1---------7-|
--5---------------5-3-----------------------0-----|
--------------2-----------0-----5-----------------|

                                                               Da Segno al Coda
  S. S. S. S. S S S S S S S S S S S S S S S S S S    S S S S S S E.  S. S.  
-----------4--5---0-----5-4-5-7-0---------0-------|--0------------------4--|
-----6--7-----------4---------------9-8-----4---2-|------------7-4---------|
--6-------------2-----4-----------------------0---|------6-----------6-----|
----------------------------------7---------------|----6-----6---6---------|
--5---------------5-3---------0---------8---------|--0-----5-----4---------|
--------------2-----------0-2---5-----6-----------|------------------------|

  Coda
  S S S S S S S S S S S S S S S S S S S S S S S S  
--------------------0-----------------------------|
--4-----4-------------4---5-----5-----------9-----|
------5---5-------5-----5-----6---6---6---6-------|
----6-------6---6-----------6-------6---6-----7-6-|
--4-----------0-----------5-----------0-----------|
--------------------------------------------0-----|


  S S S S S S S S S S S S S S S S S S  
--------------------0-----------0-----|
--4-----4-------------4---7-----------|
------5---5-------5-----5-----6-----1-|
----6-------6---6-----------6-----2---|
--4-----------0-----------5-----------|
--------------------------------------|


  S S S S S S S S S S S S S S S S S S S S S S S S  
--------------------------------------------------|
--2-----2---------4-0-----0-----0---------2-------|
------2---2-------------2-----1---1---------------|
----2-------2---4-----1-----1-------1---3---7---6-|
--1-----------------1-----0-------------------5---|
--------------2-----------------------1-----4-----|


                                              ^                 
  S S S S S S S S S S S S S S S S S S    Q    E  H.             
------2-0---------------------0-------|-------9--L------------||
------------4-2---1---------9---------|-------5--L------------||
--2-----------------3---5-6-----6-----|-------6--L------------||
----4-----2-----1-----1-----------6---|-----------------------||
--------------0-----0-----5---------8-|--5----L--L------------||
--2-----3-----------------------------|-----------------------||




Duration Legend
---------------
W - whole
H - half
Q - quarter
E - 8th
S - 16th
T - 32nd
X - 64th
. - note dotted
|-n-|  - n-tuplets


Tablature Legend
----------------
L - tied note
^ - brush up

Playing Instructions: Play until the first ending, go back to the repeat sign and play through again until you get to the first ending again. Skip first ending and play second ending. Play until you get to Da Segno al Coda. Go back to the beginning where it says Segno. Play through the first ending but when you see Da Coda, rather than repeat skip to the section marked coda and play to the end.

Login or Register to remove this ad.

10 comments on Lilium

H'omy.. You rule.

H'omy..

You rule.

can we make love? ive been

can we make love? ive been looking for this tab freakin everywhere and the only ones available are the simple ones...

You, are one, smokin' God.

4

You, are one, smokin' God.

i just busted a nut all over

i just busted a nut all over this tab

lol, I hope you brought a

lol, I hope you brought a towel.

Hey guys, just wanted to let

Hey guys, just wanted to let you know I tweaked this to make it MUCH more playable. Who know flattening one string a half step would make it a lot easier. Anyway, updated the tabs and changed the ending. Hope you like it and hope more people can tackle it now. :)

What was the old way?

was the older way harder? Im willing to try! I need something to keep me busy lol

Woah...

Totally awesome

Any chance you might make a vid of this? I'm curious on how you played this, I'm breaking fingers over here!

Updated the midi a bit to

Updated the midi a bit to bring the melody out more. It's still annoying with the way the strings ring sometimes, but hopefully this will make it easier to hear the tune. :P

chance of a youtube version?

my computer can't play the midi files.