Ads

Makafushigi Adventure (Dragon Ball) Guitar Tab

Submitted: Sep 28, 2007 by daniellu14 (Last updated: Jul 20, 2013)

5
Average: 5 (8 votes)
Download | Listen
Game: Dragon Ball
Composer(s): Unknown
Style: Transcription
Series: Dragon Ball

AutoScroll: Slow | Medium | Fast
Dragon Ball-Makafushigi Adventure

e-13-13-11--13----13-13-11--13-----
B---------13--------------13-------
G----------------------------------
D----------------------------------
A----------------------------------
E----------------------------------

e-------------------------------------
B-11-11-11-11-11-9-11-11-11-11-11-9---
G-----------------------------------10
D-------------------------------------
A-------------------------------------
E-------------------------------------

e-13-13-11--13----13-13-11--13-----
B---------13--------------13-------
G----------------------------------
D----------------------------------
A----------------------------------
E----------------------------------

e------------------------------------8
B-11-11-11-11-11-9-11-11-11-11-11-9---
G-------------------------------------
D-------------------------------------
A-------------------------------------
E-------------------------------------

e-8-11-13--13--13--11----11---11--11-13
B---------------------13---13----------
G--------------------------------------
D--------------------------------------
A--------------------------------------
E--------------------------------------

e---11--13---16-15-13-11---16-15-13--11---13---
B-13-------------------------------------------
G----------------------------------------------
D----------------------------------------------
A----------------------------------------------
E----------------------------------------------

e-1-8-8-8---8-8-8-6-6-6-8-6-----8-8-8---8-8-8--6-6-6-4--6-8
B-----------------------------6----------------------------
G----------------------------------------------------------
D----------------------------------------------------------
A----------------------------------------------------------
E----------------------------------------------------------

e-9-9-9-9-9-9-9-9-11--9-8-9-8-9-8-9-8---
B---------------------------------------
G---------------------------------------
D---------------------------------------
A---------------------------------------
E---------------------------------------

e---8-8-8---8-8-8--6-6-6-6-4-6-8--
B-6-------------------------------
G---------------------------------
D---------------------------------
A---------------------------------
E---------------------------------

e--8-8-8-8-8-8-6--4-6-8--8-11--
B-6----------------------------
G------------------------------
D------------------------------
A------------------------------
E------------------------------

e-13---13-13-13-13--13-13-13-15-13---12-------15-----
B----------------------------------------------------
G----------------------------------------------------
D----------------------------------------------------
A----------------------------------------------------
E----------------------------------------------------

e---------------16-----15--15--13--11-11---
B-16------16-------------------------------
G-----17-----------------------------------
D------------------------------------------
A------------------------------------------
E------------------------------------------

e-13--13--13--13--13--11---------------------------
B-------------------------13------14--14--14--13-11
G--------------------------------------------------
D--------------------------------------------------
A--------------------------------------------------
E--------------------------------------------------

e-11--8--11--16--15-15-13-11-11---13-13-13-13-13-16-13
B-----------------------------------------------------
G-----------------------------------------------------
D-----------------------------------------------------
A-----------------------------------------------------
E-----------------------------------------------------

e-15--------------15--13---13--
B----16------------------------
G-------17---------------------
D------------------------------
A------------------------------
E------------------------------

e-13-13-11--13----13-13-11--13-----
B---------13--------------13-------
G----------------------------------
D----------------------------------
A----------------------------------
E----------------------------------

e-------------------------------------
B-11-11-11-11-11-9-11-11-11-11-11-9---
G-----------------------------------10
D-------------------------------------
A-------------------------------------
E-------------------------------------

e-13-13-11--13----13-13-11--13-----
B---------13--------------13-------
G----------------------------------
D----------------------------------
A----------------------------------
E----------------------------------

e-------------------------------------8--
B-11-11-11-11-11-9-11-11-11-11-11-9------
G----------------------------------------
D----------------------------------------
A----------------------------------------
E----------------------------------------

e-8-11-13--13--13--11----11---11--11-13
B---------------------13---13----------
G--------------------------------------
D--------------------------------------
A--------------------------------------
E--------------------------------------

e---11--13---16-15-13-11---16-15-13--11---13---
B-13-------------------------------------------
G----------------------------------------------
D----------------------------------------------
A----------------------------------------------
E----------------------------------------------

*Note: once you get to the 11-9-11-9-11 etc. parts, play them based on how
the song actually goes, not what is seen here.
Login or Register to remove this ad.

4 comments on Makafushigi Adventure

thanks!

thanks!

Excellent!!

Excellent!!

good good good

good good good

cool

5

cool tabs i have forgot this song ^^ but now i play this on guitar