Green Bird (Cowboy Bebop) Guitar Tab

Submitted: Feb 03, 2009 by vikingskater (Last updated: Dec 30, 2009)

5
Average: 5 (1 vote)
Download | Listen
Game: Cowboy Bebop
Composer(s): Yoko Kanno
Style: Arrangement, Fingerstyle

AutoScroll: Slow | Medium | Fast
song name: Green Bird
anime name: Cowboy Bebop
composed by: Yoko Kanno
tabbed by: Joseph Green
febuary 2, 2009


     Hi, im new to tabbing, i usually dont make tabs but i figured this song out and it is a beautiful song.
   this is also my first tab. this is in the key of G, the origional song is in c. listen to the origional 
   song to about half way through to get the feeling right.    




  e-|--------------------------|--------------------------|--3-----------2-----------|
  B-|--------------------------|--------------------------|--------3-----------------|
  G-|--------0-----------0-----|--------0-----------0-----|--------0-----------0-----|
  D-|-----0-----0-----0-----0--|-----0-----0-----0-----0--|-----0-----0-----0-----0--|
  A-|--------------3-----------|--------------3-----------|--------------3-----------|
  E-|--3-----------------------|--3-----------------------|--3-----------------------|



  e-|--------------------------|--------------------------|--------------------------|
  B-|--5p3---------0-----------|--------------------------|--------------------------|
  G-|--------0-----------0-----|--2p0---0-----------0-----|--2p0---0-----------0-----|
  D-|-----0-----0-----0-----0--|-----0-----0-----0-----0--|-----0-----0-----0-----0--|
  A-|--------------3-----------|--------------3-----------|--------------3-----------|
  E-|--3-----------------------|--3-----------------------|--3-----------------------|
Login or Register to remove this ad.

1 comment on Green Bird

Beautiful

Beautiful