Login or Register to remove this ad.

Koi Suru Futari (Ah! My Goddess) Guitar Tab

Submitted: May 01, 2007 by Kabukibear (Last updated: Sep 04, 2009)

5
Average: 5 (9 votes)
Download | Listen
Game: Ah! My Goddess
Composer(s): Shiroh Hamaguchi
Style: 2 or more instruments, Fingerstyle, Transcription

AutoScroll: Slow | Medium | Fast
                              Koi Suru Futari

Guitar 1
    E  E       H        E  E     S  S Q.      E  S  S     E  E   E  Q     S S
E||-----9--||---9-----------9--|--7h-9-L------12-------|-----------------------|
B||--------||------------------|------------------9-10-|---L--9-----------10---|
G||--9-----||*-----------9-----|-----------------------|---------11--9---------|
D||--------||*-----------------|-----------------------|---------------------9-|
A||--------||------------------|-----------------------|-----------------------|
E||--------||------------------|-----------------------|-----------------------|

                   1st Ending-------                     |-3-|
 E   E   H           H        E  E     Q.     Q    E     S S S E  H
-------------------|-----------------|---------9-------|--------------------|
-------------------|-----------------|-----------------|--------------------|
-------------------|--9-----------9--|--L-----------9--|--7-9-7-6--L--------|
--L--11---L--------|-----------7-----|-----------------|--------------------|
-------------------|-----------------|-----------------|--------------------|
-------------------|-----------------|-----------------|--------------------|

                     2nd Ending-------
 H        E  E       E   E   E  E  E   S S    E  Q.     Q
--------------9---||------------------------|-----------------|
------------------||------------------------|-----------------|
-----------9-----*||--9---------------------|-----------------|
-----------------*||-----12--11--9--L--11---|-----7-----------|
------------------||----------------------9-|--L--------------|
------------------||------------------------|-----------------|

 H        E  E       Q.      Q    E     H.              H        E  E
--------------5/--|--12------10----9--|--5------------|--------------9--|
-----------7------|-------------------|---------------|-----------------|
------------------|----------11----9--|--6------------|-----------9-----|
------------------|-------------------|---------------|-----------------|
------------------|-------------------|---------------|-----------------|
------------------|-------------------|---------------|-----------------|

 S S E  E  E  E  E     S S E  E  E  E  E     Q    Q    E  S S
--9---9--L--7-----L--|--5---5--L--4--2--0--|--L----------------|
---------------------|---------------------|---------------0-2-|
----9-------6--6-----|----6----------------|-------------------|
---------------------|---------------------|---------------0-2-|
---------------------|---------------------|-------------------|
---------------------|---------------------|-------------------|

                                                        ^
 H        Q       S S E  E  Q    E     S S Q    E  E    E      H.
----------------|--5---5--L--4----0--|--L---0---------------|----------------|
--L-------------|--------------------|------------------10--|---L------------|
----------------|----6---------------|-----------7--6/------|----------------|
--L-------------|--------------------|----7-------------11--|---L------------|
----------------|--------------------|----------------------|----------------|
----------------|--------------------|----------------------|----------------|

 H        E  E     S S E  E  E  E  E     S S E  E  E  E  E
--------------9--|--9---9--L--7-----L--|--L---5--L--4--2--0--|
-----------------|---------------------|---------------------|
-----------9-----|----9-------6--6-----|----6----------------|
-----------------|---------------------|---------------------|
-----------------|---------------------|---------------------|
-----------------|---------------------|---------------------|

                                                                 Rit.--------
 Q    Q    E  S S    H        Q       S S E  E  Q    E     S S E  E  E  E  E
--L----------------|----------------|--5---5--L--4-------|--0---0-----9--7--5--|
---------------0-2-|--L-------------|-----------------0--|----2----------------|
-------------------|----------------|----6---------------|------------9--7--6--|
---------------0-2-|--L-------------|--------------------|---------------------|
-------------------|----------------|--------------------|---------------------|
-------------------|----------------|--------------------|---------------------|

 H.
--L------------|---------------|---------------||
---------------|---------------|---------------||
--L------------|---------------|---------------||
---------------|---------------|---------------||
---------------|---------------|---------------||
---------------|---------------|---------------||

Duration Legend
---------------
W - whole
H - half
Q - quarter
E - 8th
S - 16th
T - 32nd
X - 64th
. - note dotted
|-n-|  - n-tuplets

Tablature Legend
----------------
L - tied note
x - dead note
g - grace note
(n) - ghost note
/ -  slide into from below or out of upwards
 -  slide into from above or out of downwards
^ - brush up
v - brush down
Rit. - Gradually slow down
1st Ending/2nd Ending - Play 1st ending and on repeat jump 1st and play 2nd
                              Koi Suru Futari

Guitar 2
            E  E  E  E  Q       E  E  E  E  Q       E  E  Q    Q
E||-----||------------0--L----|-------------------|------------------|
B||-----||---------2----------|-----------5--L----|--------3---------|
G||-----||*-----2-------------|--------4----------|-----2------------|
D||-----||*-------------------|-----6-------------|--0----------2----|
A||-----||---0----------------|--4----------------|------------------|
E||-----||--------------------|-------------------|------------------|

                   1st Ending----------
 E  E  E  E  Q       E  E  E  Q.        E  E  E  Q.        E  E  E  Q    E
-------------------|-----------0------|-----------0------|-------------------|
-----------2--L----|--------2---------|--------2---------|-----------0-------|
--------2----------|-----2------------|-----2------------|--------2-------2--|
-----4-------------|--0---------------|--0---------------|-----2-------------|
-------------------|------------------|------------------|--0----------------|
--2----------------|------------------|------------------|-------------------|

                   2nd Ending-----------
 E  E  H             E  E  E  Q.        E  E  E  Q    E     E  E  S E.  Q
------------------||------------------|----------------7--|--L--0--4-5--------|
------------------||------------------|-----------5-------|-------------------|
--L--------------*||--------2--L------|--------4----------|-------------------|
-----2--L--------*||-----4------------|-----4-------------|-------------------|
------------------||--2---------------|--4----------------|-------------------|
------------------||------------------|-------------------|-------------------|

 E  S S E  Q    E     E  E  E  Q    E     Q    H           E  E  E  E  Q
---------2----------|----------------0--|--L-------------|--------------0----|
-------3----3----2--|-----------0-------|----------------|-----------2-------|
-----4--------------|--2-----2----------|----------------|--------2----------|
--------------------|-----2-------------|----------------|-----2-------------|
--2-----------------|--0----------------|----------------|--0----------------|
------------0-------|-------------------|----------------|-------------------|

 E  E  E  E  Q       E  E  E  Q.        E  E  E  E  E  E     E  E  E  E  Q
-------------------|-----------0------|--------------0-----|-------------------|
-----------2-------|--------3---------|-----------2-----0--|-----------2-------|
--------2-----2----|-----2------------|--------2-----------|--------2-----2----|
-----4-------------|--0---------------|-----2--------------|-----4-------------|
-------------------|--0---------------|--0-----------------|-------------------|
--2----------------|------------------|--------------4-----|--2----------------|

 E  E  H           E  E  E  E  E  E     E  S S S S Q    E
-----0-----------|-----------------0--|-----------0---------|
--------2--------|-----------0--------|---------0---0-------|
-----------------|--------2-----2-----|-------2----------2--|
--0--------------|-----2--------------|-----2---------------|
-----------------|--0-----------------|--0------------------|
-----------------|--------------------|---------------------|

 E  E  E  E  Q       E  E  E  E  Q       E  E  E  E  Q
--------------0----|-------------------|-----------0--L----|
-----------2-------|-----------2-------|--------2----------|
--------2----------|--------2-----2----|-----2-------------|
-----2-------------|-----4-------------|--0----------------|
--0----------------|-------------------|--0----------------|
-------------------|--2----------------|-------------------|

                                          ^
 E  E  E  E  E  E     E  E  E  E  Q       H.              E  S S S S E  E  E
-----------------0--|-------------------|---------------|-------------------0--|
-----------2--0-----|-----------2-------|--0------------|---------0-2-0--L-----|
--------2-----------|--------2-----2----|--2------------|-------2--------------|
-----2--------------|-----4-------------|--0------------|-----2----------------|
--0-----------------|-------------------|---------------|--0-------------------|
--------------4-----|--2----------------|---------------|----------------------|

                      ^
 E  E  E  E  E  E     H.
--------------------|---------------||
-----------0--2--0--|--2------------||
--------2-----------|--2------------||
-----2--------------|--2------------||
--0-----------------|--0------------||
--------------------|---------------||

Duration Legend
---------------
W - whole
H - half
Q - quarter
E - 8th
S - 16th
T - 32nd
X - 64th
. - note dotted
|-n-|  - n-tuplets

Tablature Legend
----------------
L - tied note
^ - brush up
Login or Register to remove this ad.

4 comments on Koi Suru Futari

Great tab. If anyone wants

Great tab. If anyone wants to revisit my old tab for whatever reason, it's still available at http://www.gametabs.net/tabs/anime/ahmygoddess/koisurufutari.txt

Perfect tab I was looking

5

Perfect tab I was looking for aa megami sama tabs for long time, ty a lot!!! wakare is amazing too

Wow, pretty song :D. I

Wow, pretty song :D. I didn't realize it until I actually played it :)

Ive never heard this song

Ive never heard this song before but its amazing. Im going to work on this song right away. Its beautifullllll!