Ads

Surfin' K.K. (Animal Crossing) Guitar Tab

Submitted: Jan 10, 2013 by

4
Average: 4 (1 vote)
Download | Listen
Game: Animal Crossing
Composer(s): Kazumi Totaka, Shinobu Tanaka, Toru Minegishi
Style: Transcription

AutoScroll: Slow | Medium | Fast
Surfin K.K.
This is just the tab. I'm thinking about doing the chords later.


e---------------------------------------------------------
B---------------------------------------------------------
G---------------------------------------------------------
D-----------------------------------7---------------------
A-------------0-2--5--7--9-7-5-7-9-----9-7--9-------------
E----0--0-2-3---------------------------------------------

e---------------------------------------------------------
B---------------------------------------------------------
G---------------------------------------------------------
D----9--7-------------------------------------------------
A---------9-7-------7-9--7-5-6----------------------------
E--------------7-10---------------------------------------

e---------------------------------------|
B---------------------------------------|
G---------------------------------------|
D---------------------------------------|(x2)
A--7h8-7h8-7-5-2-0-2--------------------|
E---------------------------------------|

e---------------------------------------------------------
B---------------------------------------------------------
G---------------------------------------------------------
D--0-2--0-2--0-2-0-2-0-2-0--------------------------------
A--------------------------2-0-2--0-2--0-2-0-2-0-2--------
E---------------------------------------------------------

e---------------------------------------------------------
B---------------------------------------------------------
G---------------------------------------------------------
D--0-2--0-2--0-2-0-2-0-2------4-4-4-4-4-4-7-4---4---------
A---------------------------------------------7-----------
E---------------------------------------------------------
Login or Register to remove this ad.

1 comment on Surfin' K.K.

Pretty Good

4

Great tab. Was looking for this song.