K.K. Gumbo (Animal Crossing) Guitar Tab

Submitted: Oct 18, 2009 by RexLeRouge (Last updated: Feb 06, 2010)

0
Download | Listen
Game: Animal Crossing
Composer(s): Kazumi Totaka, Shinobu Tanaka, Toru Minegishi
Style: Transcription

AutoScroll: Slow | Medium | Fast
K.K. Gumbo      
Animal Crossing                               
Composed by: Kazumi Totaka, Kenta Nagata, Toru Minegishi, Shinobu Tanaka

Tab by RexLeRouge                                                                    
Mélodie



     B5                  B5                  B5                        
     W                   W                   E  Q.       E  E  S E  S  
E||-------------------|-------------------|---------------------------|
B||-------------------|-------------------|---------------------------|
G||-------------------|-------------------|---------------------------|
D||-------------------|-------------------|---------------------------|
A||-------------------|-------------------|--2--------------2--5-2--2-|
E||-------------------|-------------------|------------2g5------------|


  E5                      G5                A5         D5       F#5       
  Q.     S S Q    Q       E  Q.       E  E  S  E  S    H        H         
-----------------------|----------------------------|--------------------|
-----------------------|----------------------------|--------------------|
-----------------------|----------------------------|--------------------|
-----------------------|----------------------------|--------------------|
-----------------------|----------------------------|--------------------|
---------5-4-L---------|--3---------2g0--3--5--3--2-|--------------------|


  B5                          E5                      G5          A5            
  E  Q.       E  E  S E  S    Q.     S S Q    Q       E  E  E  E  E  E  S S E   
---------------------------|-----------------------|---------------------------|
---------------------------|-----------------------|---------------------------|
---------------------------|-----------------------|--4--2-----2---------------|
---------------------------|---------4-------------|--------4-----4--2---------|
--2--------------2--5-2--2-|-----------2-L---------|--------------------5-4-2--|
------------2g5------------|-----------------------|---------------------------|


  B5                   A5                  B5                
  Q    H.              W                   W                 
--------------------|-------------------|-------------------|
--------------------|-------------------|-------------------|
--------------------|-------------------|-------------------|
--------------------|-------------------|-------------------|
--2-----------------|-------------------|-------------------|
--------------------|-------------------|-------------------|


  A5                  B5                          E5                    
  W                   E  Q.       E  E  S E  S    Q.     S S Q    Q     
-------------------|---------------------------|-----------------------|
-------------------|---------------------------|-----------------------|
-------------------|---------------------------|-----------------------|
-------------------|---------------------------|-----------------------|
-------------------|--2--------------2--5-2--2-|-----------------------|
-------------------|------------2g5------------|---------5-4-L---------|


  G5                A5         D5       F#5         B5                        
  E  Q.       E  E  S  E  S    H        H           E  Q.       E  E  S E  S  
----------------------------|--------------------|---------------------------|
----------------------------|--------------------|---------------------------|
----------------------------|--------------------|---------------------------|
----------------------------|--------------------|---------------------------|
----------------------------|--------------------|--2--------------2--5-2--2-|
--3---------2g0--3--5--3--2-|--------------------|------------2g5------------|


  E5                      G5          A5              B5                    
  Q.     S S Q    Q       E  E  E  E  E  E  S S E     Q    Q.     E  S E.   
-----------------------|---------------------------|-----------------------|
-----------------------|---------------------------|-----------------------|
-----------------------|--4--2-----2---------------|-----------------------|
---------4-------------|--------4-----4--2---------|-------------------2---|
-----------2-L---------|--------------------5-4-2--|--2-----------2--5-----|
-----------------------|---------------------------|-----------------------|


  E5                      E5                       E5                    
  Q    Q.     E  S E.     Q    Q.     E  S S E     Q    Q.     E  S E.   
-----------------------|------------------------|-----------------------|
-----------------------|------------------------|-----------------------|
-----------------------|---------------------4--|-----------------------|
--5----------------2---|-------------------2----|--5----------------2---|
--------------2--5-----|--------------2--5------|--------------2--5-----|
-----------------------|--3---------------------|-----------------------|


                         G5                       A5                     
  Q    Q    Q    Q       E  S S Q    Q.     E     E  Q    Q.     E  S S  
----------------------|------------------------|------------------------|
----------------------|------------------------|------------------------|
----------------------|------------------------|------------------------|
--5----4----2---------|---------------------2--|------------------------|
-----------------5----|--5--2-0-2--------------|--4--2----------------2-|
----------------------|------------------------|-----------------2--5---|


  F#5                 F#5                 F#5                        
  W                   W                   E   Q.       E  E  S E  S  
-------------------|-------------------|----------------------------|
-------------------|-------------------|----------------------------|
-------------------|-------------------|----------------------------|
-------------------|-------------------|--4---------------4--7-4--4-|
-------------------|-------------------|-------------4g7------------|
-------------------|-------------------|----------------------------|


  B5                      D5                E5         A5       C#5       
  Q.     S S Q    Q       E  Q.       E  E  S  E  S    H        H         
-----------------------|----------------------------|--------------------|
-----------------------|----------------------------|--------------------|
-----------------------|----------------------------|--------------------|
-----------------------|----------------------------|--------------------|
---------7-6-L---------|--5---------4g2--5--7--5--4-|--------------------|
-----------------------|----------------------------|--------------------|


  F#5                          B5                  D5          E5            
  E   Q.       E  E  S E  S    W                   E  E  E  E  E  E  S S E   
----------------------------|-------------------|---------------------------|
----------------------------|-------------------|---------------------------|
----------------------------|-------------------|---------------------------|
--4---------------4--7-4--4-|-------------------|--4--2-----2---------------|
-------------4g7------------|-------------------|--------4-----4--2---------|
----------------------------|-------------------|--------------------5-4-2--|


  F#5                  G5                  C5                        
  Q    H.              W                   E  Q.       E  E  S E  S  
--------------------|-------------------|---------------------------|
--------------------|-------------------|---------------------------|
--------------------|-------------------|---------------------------|
--------------------|-------------------|---------------------------|
--------------------|-------------------|--3--------------3--6-3--3-|
--2-----------------|-------------------|------------3g6------------|


  F5                      G#5                A#5         D#5      G5        
  Q.     S S Q    Q       E   Q.       E  E  S   E  S    H        H         
-----------------------|------------------------------|--------------------|
-----------------------|------------------------------|--------------------|
-----------------------|------------------------------|--------------------|
-----------------------|------------------------------|--------------------|
-----------------------|------------------------------|--------------------|
---------6-5-L---------|--4----------3g1--4--6---4--3-|--------------------|


  C5                          F5                    
  E  Q.       E  E  S E  S    Q.     S S Q    Q     
---------------------------|-----------------------|
---------------------------|-----------------------|
---------------------------|-----------------------|
---------------------------|---------5-------------|
--3--------------3--6-3--3-|-----------3-L---------|
------------3g6------------|-----------------------|


  G#5          A#5              C5                  
  E   E  E  E  E   E  S S E     Q    H.             
-----------------------------|--------------------||
-----------------------------|--------------------||
--5---3-----3----------------|--------------------||
---------5-----5---3---------|--------------------||
----------------------6-5-3--|--3-----------------||
-----------------------------|--------------------||




Duration Legend
---------------
W - whole
H - half
Q - quarter
E - 8th
S - 16th
T - 32nd
X - 64th
. - note dotted
|-n-|  - n-tuplets
Login or Register to remove this ad.