Ads

K.K. Cruisin' (Animal Crossing) Guitar Tab

Submitted: Apr 01, 2016 by quinndangle2

5
Average: 5 (4 votes)
Download | Listen
Game: Animal Crossing
Composer(s): Kazumi Totaka, Shinobu Tanaka, Toru Minegishi
Style: Arrangement, Fingerstyle

AutoScroll: Slow | Medium | Fast
K.K. Cruisin'
From Animal Crossing
Composed by Toru Minegishi
Arranged by Brent Quinn

Tempo ~ 180
Tuning: D#AC#GBE
8/4 Time (Q in 8/4 = E in 4/4)

Refer to the original song (or alternatively midi file) for more accurate rhythm, feel and chord timings


    E.   E   S.  E   S.  E   E   Q    S  E.   S  E.   Q.      E   E   E   E   E   E   W      Q
 E|---------------------------------------------------------|-------------------------------------|
 B|---------------------------------------------------------|-2-----------2-----------2------L----|
 G|------8-------6------------------------------------------|-3-----------3-----------1------L----|
C#|-9--------------------9-------7-------7----9-------------|-2-----------2-----------1------L----|
 A|-----------------------------------9----------9----6-----|-2-----------2-----------1------L----|
D#|---------------------------------------------------------|-------------------------------------|


                    Q    Q    Q    E   H.     Q.      H.     E   E   Q    Q.    S  E.   E
 E|--------------||----------------2----------------|---------------------------------------|
 B|--------------||-2----2----4--------3------------|-6----------6--------6-----L--4----2---|
 G|--------------||*3----3-------------1------3-----|-6----------5--------5-----L-----------|
C#|--------------||*2----2-------------1------------|-5----------5--------5-----L-----------|
 A|--------------||-2----2-------------1------------|-6-------------------------------------|
D#|--------------||---------------------------------|-0----------5--------5-----L-----------|


    Q    E   H     E   Q    H.       Q    Q    Q    Q    Q    Q    Q    Q      Q    Q    Q    E   H.     Q.
 E|--------------------------------|------------------------------------2----|----------------2----------------|
 B|-2--------------2--------2------|-6------------------------2----4---------|-2----2----4--------3------------|
 G|-3----1---------1--------1------|-6-------------------3-------------------|-3----3-------------1------3-----|
C#|-2--------5-----1--------1------|-5-------------------3-------------------|-2----2-------------1------------|
 A|-2--------------1--------1------|-6--------------1----4-------------------|-2----2-------------1------------|
D#|--------------------------------|-0----3----5---------3-------------------|---------------------------------|

									      First repeat
    H.     E   E   Q    Q.    S  E.   E     Q    E   H     E   Q    H.        Q    Q    Q    Q    Q    Q    Q    Q
 E|------------------------------6----4---|-2----4-------------------------||-6---------------------------------------||
 B|-6----------6--------6-----L-----------|-2--------6-----2--------2------||-6---------------------------------------||
 G|-6----------5--------5-----L-----------|-3--------------1--------1------||-6--------------------------------------*||
C#|-5----------5--------5-----L-----------|-2--------------1--------1------||-5--------------------------------------*||
 A|-6-------------------------------------|-2--------------1--------1------||-6---------------------------------------||
D#|-0----------5--------5-----L-----------|--------------------------------||-0---------------------------------------||

   Second Repeat
     Q    Q    H     H     H       Q    S  E   E   Q.   S   Q    S  E   E   Q.   S
 E||-----------------------------|-6----L--4---4------------4----L--2---2------------|
 B||-6---------------4-----7-----|-2----L-------------------2----L-------------------|
 G||-6---------6-----------------|-3----L-------------------1----L-------------------|
C#||-5---------------------------|-2----L-------------------1----L-------------------|
 A||-6---------------------------|-2----L-------------------1----L-------------------|
D#||-0---------------------------|---------------------------------------------------|


    Q    S  E   E   Q.   S   Q    S  E   E   Q.   S     Q    S  E   E   Q.   S   Q    S  E   E   Q.   S
 E|-4----L-------------------6----L--4---4------------|-6----L--4---4------------4----L--2---2------------|
 B|-6----L--7---7------------6----L-------------------|-2----L-------------------2----L-------------------|
 G|-6----L-------------------5----L-------------------|-3----L-------------------1----L-------------------|
C#|---------------------------------------------------|-2----L-------------------1----L-------------------|
 A|-6----L--------------------------------------------|-2----L-------------------1----L-------------------|
D#|--------------------------5----L-------------------|---------------------------------------------------|


    Q    Q    Q    Q    Q    Q    E   Q.      Q    S  E   E   Q.   S   Q    S  E   E   Q.   S
 E|-----------------------------------2-----|-6----L--4---4------------4----L--2---2------------|
 B|-6------------------------2----4---------|-2----L-------------------2----L-------------------|
 G|-6-------------------3-------------------|-3----L-------------------1----L-------------------|
C#|-5-------------------3-------------------|-2----L-------------------1----L-------------------|
 A|-6--------------1----4-------------------|-2----L-------------------1----L-------------------|
D#|-0----3----5---------3-------------------|---------------------------------------------------|


    Q    S  E   E   Q.   S   Q    S  E   E   Q.   S     Q    S  E   E   Q.   S   Q    S  E   E   Q.   S
 E|-4----L-------------------6----L--4---4------------|-6----L--4---4------------4----L--2---2------------|
 B|-6----L--7---7------------6----L-------------------|-2----L-------------------2----L-------------------|
 G|-6----L-------------------5----L-------------------|-3----L-------------------1----L-------------------|
C#|------L--------------------------------------------|-2----L-------------------1----L-------------------|
 A|-6----L--------------------------------------------|-2----L-------------------1----L-------------------|
D#|--------------------------5----L-------------------|---------------------------------------------------|


    H     H     H     H       Q    Q    Q    E   H.     Q.      H.     E   E   Q    Q.    S  E.   E
 E|-------------------------|----------------2----------------|---------------------------------------|
 B|-6-----------------------|-2----2----4--------3------------|-6----------6--------6-----L--4----2---|
 G|-6-----------------------|-3----3-------------1------3-----|-6----------5--------5-----L-----------|
C#|-5-----------------------|-2----2-------------1------------|-5----------5--------5-----L-----------|
 A|-6-----------------------|-2----2-------------1------------|-6-------------------------------------|
D#|-0-----------------------|---------------------------------|-0----------5--------5-----L-----------|


    Q    E   H     E   Q    H        Q    Q    Q    Q    Q    Q    Q    Q      Q    Q    Q    E   H.     Q.
 E|--------------------------------|------------------------------------2----|----------------2----------------|
 B|-2--------------2--------2------|-6------------------------2----4---------|-2----2----4--------3------------|
 G|-3----1---------1--------1------|-6-------------------3-------------------|-3----3-------------1------3-----|
C#|-2--------5-----1--------1------|-5-------------------3-------------------|-2----2-------------1------------|
 A|-2--------------1--------1------|-6--------------1----4-------------------|-2----2-------------1------------|
D#|--------------------------------|-0----3----5---------3-------------------|---------------------------------|

   
    H.     E   E   Q    Q.    S  E.   E     Q    E   H     E   Q    H        Q    Q    H     H     H
 E|------------------------------6----4---|-2----4-------------------------|-----------------------------|
 B|-6----------6--------6-----L-----------|-2--------6-----2--------2------|-6---------------4-----7-----|
 G|-6----------5--------5-----L-----------|-3--------------1--------1------|-6---------6-----------------|
C#|-5----------5--------5-----L-----------|-2--------------1--------1------|-5---------------------------|
 A|-6-------------------------------------|-2--------------1--------1------|-6---------------------------|
D#|-0----------5--------5-----L-----------|--------------------------------|-0---------------------------|


    Q    S  E   E   Q.   S   Q    S  E   E   Q.   S     Q    S  E   E   Q.   S   Q    S  E   E   Q.   S
 E|-6----L--4---4------------4----L--2---2------------|-4----L-------------------6----L--4---4------------|
 B|-2----L-------------------2----L-------------------|-6----L--7---7------------6----L-------------------|
 G|-3----L-------------------1----L-------------------|-6----L-------------------5----L-------------------|
C#|-2----L-------------------1----L-------------------|---------------------------------------------------|
 A|-2----L-------------------1----L-------------------|-6----L--------------------------------------------|
D#|---------------------------------------------------|--------------------------5----L-------------------|


    Q    S  E   E   Q.   S   Q    S  E   E   Q.   S     Q    Q    Q    Q    Q    Q    E   Q.
 E|-6----L--4---4------------4----L--2---2------------|-----------------------------------2-----|
 B|-2----L-------------------2----L-------------------|-6------------------------2----4---------|
 G|-3----L-------------------1----L-------------------|-6-------------------3-------------------|
C#|-2----L-------------------1----L-------------------|-5-------------------3-------------------|
 A|-2----L-------------------1----L-------------------|-6--------------1----4-------------------|
D#|---------------------------------------------------|-0----3----5---------3-------------------|


    Q    S  E   E   Q.   S   Q    S  E   E   Q.   S     Q    S  E   E   Q.   S   Q    S  E   E   Q.   S
 E|-6----L--4---4------------4----L--2---2------------|-4----L-------------------6----L--4---4------------|
 B|-2----L-------------------2----L-------------------|-6----L--7---7------------6----L-------------------|
 G|-3----L-------------------1----L-------------------|-6----L-------------------5----L-------------------|
C#|-2----L-------------------1----L-------------------|---------------------------------------------------|
 A|-2----L-------------------1----L-------------------|-6----L--------------------------------------------|
D#|---------------------------------------------------|--------------------------5----L-------------------|

 
    Q    S  E   E   Q.   S   Q    S  E   E   Q.   S     Q.    Q    E   Q    Q    S  E.   S  E   Q    S
 E|-6----L--4---4------------4----L--2---2------------|---------------------4----6--4----6--4-----------|
 B|-2----L-------------------2----L-------------------|-6--------------7------------------------7----L--|
 G|-3----L-------------------1----L-------------------|-6----------6------------------------------------|
C#|-2----L-------------------1----L-------------------|-5---5g7-----------------------------------------|
 A|-2----L-------------------1----L-------------------|-6-----------------------------------------------|
D#|---------------------------------------------------|-0-----------------------------------------------|


    Q    S  E   E   Q.   S   Q    S  E   E   Q.   S     Q    S  E   E   Q.   S   Q    S  E   E   Q.   S
 E|-7----L--5---5------------5----L--3---3------------|-5----L-------------------7----L--5---5------------|
 B|-3----L-------------------3----L-------------------|-7----L--8---8------------7----L-------------------|
 G|-4----L-------------------2----L-------------------|-7----L-------------------6----L-------------------|
C#|-3----L-------------------2----L-------------------|---------------------------------------------------|
 A|-3----L-------------------2----L-------------------|-7----L--------------------------------------------|
D#|---------------------------------------------------|--------------------------6----L-------------------|


    Q    S  E   E   Q.   S   Q    S  E   E   Q.   S     Q    Q    Q    Q    Q    Q    E   Q.
 E|-7----L--5---5------------5----L--3---3------------|-----------------------------------3-----|
 B|-3----L-------------------3----L-------------------|-7------------------------3----5---------|
 G|-4----L-------------------2----L-------------------|-7-------------------4-------------------|
C#|-3----L-------------------2----L-------------------|-6-------------------4-------------------|
 A|-3----L-------------------2----L-------------------|-7--------------2----5-------------------|
D#|---------------------------------------------------|------4----6---------4-------------------|


    Q    S  E   E   Q.   S   Q    S  E   E   Q.   S     Q    S  E   E   Q.   S   Q    S  E   E   Q.   S
 E|-7----L--5---5------------5----L--3---3------------|-5----L-------------------7----L--5---5------------|
 B|-3----L-------------------3----L-------------------|-7----L--8---8------------7----L-------------------|
 G|-4----L-------------------2----L-------------------|-7----L-------------------6----L-------------------|
C#|-3----L-------------------2----L-------------------|---------------------------------------------------|
 A|-3----L-------------------2----L-------------------|-7----L--------------------------------------------|
D#|---------------------------------------------------|--------------------------6----L-------------------|


    Q    S  E   E   Q.   S   Q    S  E   E   Q.   S     E.   E.   E.   E.   W      Q
 E|-7----L--5---5------------5----L--3---3------------|---------------------------------||
 B|-3----L-------------------3----L-------------------|-7---------7---------7------L----||
 G|-4----L-------------------2----L-------------------|-7---------7---------7------L----||
C#|-3----L-------------------2----L-------------------|-6---------6---------6------L----||
 A|-3----L-------------------2----L-------------------|-7---------7---------7------L----||
D#|---------------------------------------------------|---------------------------------||



Login or Register to remove this ad.

2 comments on K.K. Cruisin'

This is amazing!

5

Thank you so much for this! I've been searching for a good tab and this is perfect. It's so much fun to play, great job!

Best one

5

Literally the most accurate one on the internet. Took me forever to find a good tab