Ads

K.K. Cruisin' (Animal Crossing) Guitar Tab

Submitted: Apr 20, 2011 by (Last updated: Apr 20, 2011)

4
Average: 4 (1 vote)
Download | Listen
Game: Animal Crossing
Composer(s): Kazumi Totaka, Shinobu Tanaka, Toru Minegishi
Style: 2 or more instruments, Transcription

AutoScroll: Slow | Medium | Fast
K.K. Cruisin'
Animal Crossing

--tablature by Chip Caramel--
[email protected]
http://chipcaramel.deviantart.com


TUNING:

From Standard Tuning, drop all strings one half step
'EADGBE' is now 'EbAbDbGbBbEb'


INTRO:


{----------  whistle along ----------}
e-----0-----------------------------------------------------//grunt//grunt//--------------------------
B-0--------3---0-------------0---------/-3--/--3----3---------------------------(muted)---------------
G------------------2-----0-2----0------/-0--/--0----2-------------------------------------------------
D---------------------------------2----/-2--/--2----1-----------------------------1-1-----7-slide-0---
A--------------------------------------/-3--/--3----2-----------------------------2-2-----------------
E-----------------------------------------------------------------------------------------------------


PROGRESSION:

[Line A]

e-x--x---/-/-/--x--x-x---/-/-/-/-2--2--/--/-/-2--2-2-/-/-/-/--x--x---/-/-/--x--x-x---/-/-/-/-2--2--/--/-/-x--x-x-/-/-/-/
B-3--3---/-/-/--3--3-3---/-/-/-/-3--3--/--/-/-2--2-2-/-/-/-/--x--x---/-/-/--x--x-x---/-/-/-/-3--3--/--/-/-x--x-x-/-/-/-/
G-0--0---/-/-/--2--2-2---/-/-/-/-0--0--/--/-/-2--2-2-/-/-/-/--0--0---/-/-/--2--2-2---/-/-/-/-0--0--/--/-/-0--0-0-/-/-/-/
D-2--2---/-/-/--1--1-1---/-/-/-/-2--2--/--/-/-2--2-2-/-/-/-/--2--2---/-/-/--1--1-1---/-/-/-/-2--2--/--/-/-3--3-3-/-/-/-/
A-3--3---/-/-/--2--2-2---/-/-/-/-2--2--/--/-/-0--0-0-/-/-/-/--3--3---/-/-/--2--2-2---/-/-/-/-2--2--/--/-/-2--2-2-/-/-/-/
E-x--x---/-/-/--x--x-x---/-/-/-/-0--0--/--/-/-x--x-x-/-/-/-/--x--x---/-/-/--x--x-x---/-/-/-/-0--0--/--/-/-3--3-3-/-/-/-/


[Line B] (same as Line A, but cut short)

e-x--x---/-/-/--x--x-x---/-/-/-/-2--2--/--/-/-2--2-2-/-/-/-/--x--x---/-/-/--x--x-x---/-/-/-/-2 |
B-3--3---/-/-/--3--3-3---/-/-/-/-3--3--/--/-/-2--2-2-/-/-/-/--x--x---/-/-/--x--x-x---/-/-/-/-3 |
G-0--0---/-/-/--2--2-2---/-/-/-/-0--0--/--/-/-2--2-2-/-/-/-/--0--0---/-/-/--2--2-2---/-/-/-/-0 |
D-2--2---/-/-/--1--1-1---/-/-/-/-2--2--/--/-/-2--2-2-/-/-/-/--2--2---/-/-/--1--1-1---/-/-/-/-2 |
A-3--3---/-/-/--2--2-2---/-/-/-/-2--2--/--/-/-0--0-0-/-/-/-/--3--3---/-/-/--2--2-2---/-/-/-/-2 |
E-x--x---/-/-/--x--x-x---/-/-/-/-0--0--/--/-/-x--x-x-/-/-/-/--x--x---/-/-/--x--x-x---/-/-/-/-0 |

[Line C]

e----------------------
B--(muted)-------------
G----------------------
D--1-1-----7-slide-0---
A--2-2-----------------
E----------------------

[Line D]

e--2---2---2--------
B--3---3---3--------
G--0---0---0--------
D--2---2---2--------
A--2---2---2--------
E--0---0---0--------


SONG:

Line | Lyrics (Animalese)


A |          Ma me oh....         me now...                way way me na oh                        me no me oh me oh me oh
B |          Now me oh....         me now...                me na me me oh                            (whispered) Dah dah Hmm...
A |          Ma me oh....         me now...                way way me na oh                        me no me oh me oh me oh
A |          Now me oh....         me now...                me na me me oh                           oh   way   oh
A |   Way   me me     way   me me    way    me me    way    me me   way    me me   way    me me    me no me oh me oh naw oh
B |   Way   me me     way   me me    way    me me  now way  me me   way    me me   way    me me     Hmm hmm hmm 
C |  (No vocals)
A |  (Whistled and grunted)   
B |  (Whistled and grunted) + 4 muted strums + Oh way oh
A |   Way   me me     way   me me    way    me me    way    me me   way    me me   way    me me    me no me oh me oh naw oh
B |   Way   me me     way   me me    way    me me  now way  me me   way    me me   way    me me    oh way oh me-ah me-ah me-ah

(tune 1/2 step up)

A |  Way   me me     way   me me    way    me me    way    me me   way    me me   way    me me    me no me oh me oh naw oh
B |  Way   me me     way   me me    way    me me  now way  me me   way    me me   way    me me  
D |  (No vocals)
Login or Register to remove this ad.