Ads

Able Sisters (Animal Crossing) Guitar Tab

Submitted: Sep 17, 2013 by

4
Average: 4 (1 vote)
Download | Listen
Game: Animal Crossing
Composer(s): Kazumi Totaka, Shinobu Tanaka, Toru Minegishi
Style: Transcription

AutoScroll: Slow | Medium | Fast
e--0-----------------0-------------------------------
B----3-----0-----------3-----------------------------
G------2-----2-----------2----2-4-2-0----------------
D--------------3-------------------------------------
A----------------------------------------------------
E----------------------------------------------------x2

e----------2-0----------0----------------------------
B----0-1-------1--0-1-3---3--------------------------
G--2------------------------2------------------------
D----------------------------------------------------
A----------------------------------------------------
E----------------------------------------------------

Repeat until you run out of bells
Login or Register to remove this ad.